Oops, an error
Loading. Please wait.

Anti Orgasm Tab

version 1
version 1

Whole song

3,232 views 9 this week
no commentswrite comment
1 2 3 4 5
accurate
x 4
add to favorites
launch autoscroll
font size
0
reset
how to read this tab
guitar tuner
Tab Pro tools
  • play this tab
  • loop segment
  • change instrument
  • show fretboard
  • metronome
Autoscroll
slow
fast
+/-
esc
set tempo
stop
Sonic Youth/The Eternal/Anti Orgasm
E B E E A B
6th string the same
5th string 1 step up
4th string 1 step up
3rd string 1 1/2 steps down
2nd string 1 step down
1st string 2 1/2 steps down

Verse:
-5-5-5-3-1--------------------------|
-7-7-7-5-3--------------------------|
-----------555111555111555111555111-|
-----------555111555111555111555111-|
-----------555111555111555111555111-|
-----------555111555111555111555111-|

Chorus:
-------------------------------------------------------------|
-------------------------------------------------------------|
-10-10-10-10-9-9-9-9-10-10-10-10-9-9-9-9-10-10-10-10-9-9-9-9-|
-10-10-10-10-9-9-9-9-10-10-10-10-9-9-9-9-10-10-10-10-9-9-9-9-|
-10-10-10-10-9-9-9-9-10-10-10-10-9-9-9-9-10-10-10-10-9-9-9-9-|
-10-10-10-10-9-9-9-9-10-10-10-10-9-9-9-9-10-10-10-10-9-9-9-9-|

---------------------|
---------------------|
-10-10-10-10-9-9-9-9-|
-10-10-10-10-9-9-9-9-|
-10-10-10-10-9-9-9-9-|
-10-10-10-10-9-9-9-9-|

Breakdown: The note played here is actually A, but I know this is the
correct tuning. So the E/B power chord is wrong, but is low enough.
                                 (harmonics, slide back and forth)
---------------------------------242322212019181716151413121110987654321-|
---------------------------------242322212019181716151413121110987654321-|
---------------------------------242322212019181716151413121110987654321-|
---------------------------------242322212019181716151413121110987654321-|
-0-0-0-0-0-0-0-0-0-0-0-0-0-0-0-0-242322212019181716151413121110987654321-|
-0-0-0-0-0-0-0-0-0-0-0-0-0-0-0-0-242322212019181716151413121110987654321-|

Eerie Interlude:
Play either of these repetitively:
-10-10-10-10-13-10-10-10-  -17-17-15-15-|
-10-10-10-10-13-10-10-10-  -17-17-15-15-|
-------------------------  -------------|
-------------------------  -------------|
-------------------------  -------------|
-------------------------  -------------|

Dreamy Ending: Soloing in the key of F maj., and also adding some
delay effects, pick stratches, and these licks:
--------10---  -13-13-13-13-13-11-10-|
---10----10--  -15-15-15-15-15-13-12-|
--10-10---10-  ----------------------|
--10-10---10-  ----------------------|
-10----------  ----------------------|
-------------  ----------------------|

The ending note is:
----
----
-10-
-10-
-10-
-10-

I highly suggest that someone tries to interpret the bass tab.
I don't have a bass. And I love how off-the-wall it sounds at
the interlude!

Order:
Verse
Chorus
Breakdown
Verse
Chorus
Breakdown
Verse
Chorus
Interlude
Breakdown
Ending

YAY!
comments
print report bad tab
I want to post or [tab]
guest
You may want to rate the tab now too:
select rating
Please do not post tabs as comments. Select "correction" instead!