Oops, an error
Loading. Please wait.

Anti Orgasm Tab

version 2
version 2

Whole song

3,576 views 1 this week
no commentswrite comment
1 2 3 4 5
x 5
add to favorites
launch autoscroll
font size
0
reset
how to read this tab
guitar tuner
Autoscroll
slow
fast
+/-
esc
set tempo
stop
Help us to improve Ultimate-Guitar.com Take our survey!
×
Artist: Sonic Youth
Song: Anti Orgasm
Album: The Eternal
Tabbed by: Indie Nation
Tunning: Standard



|---------------|
|---------------|
|-7b-7b-7b7--5--|
|---------------|
|---------------|
|---------------|
|
|
|---------------|
|---------------|
|-7--7--7-7--5--|
|-7--7--7-7--5--|
|-5--5--5-5--3--|
|---------------|


|----------------------------------|
|----------------------------------|
|----------------------------------|
|-7--7-7--3--3-3--7-7-7--3--3-3----| 
|-7--7-7--3--3-3--7-7-7--3--3-3----|
|-5--5-5--1--1-1--5-5-5--1--1-1----|

|----------------------------------|
|----------------------------------|
|----------------------------------|
|-7--7-7--3--3-3--7-7-7--3--3-3----| 
|-7--7-7--3--3-3--7-7-7--3--3-3----|
|-5--5-5--1--1-1--5-5-5--1--1-1----|


|-------------------------|-------------------------|
|-------------------------|-------------------------|
|-7--7--7--7--7--7--7--7--|-6--6--6--6--5--5--5--5--|
|-7--7--7--7--7--7--7--7--|-6--6--6--6--5--5--5--5--|
|-5--5--5--5--5--5--5--5--|-4--4--4--4--3--3--3--3--|
|-------------------------|-------------------------|
|    
|                                                       x4
|    
|-10-10-10-10-10-10-10-10-|-11-11-11-11-12-12-12-12-|
|-------------------------|-------------------------|
|-------------------------|-------------------------|
|-------------------------|-------------------------|
|-------------------------|-------------------------|
|-------------------------|-------------------------|


|------------------------------------|
|------------------------------------|
|------------------------------------|  
|-12X-12x-12x-12x-12x-12x-12x-12x----|
|-12X-12x-12x-12x-12x-12x-12x-12x----|
|-10X-10x-10x-10x-10x-10x-10x-10x----| 

|------------------------------------|
|------------------------------------|
|------------------------------------|  
|-12X-12x-12x-12x-12x-12x-12x-12x----|
|-12X-12x-12x-12x-12x-12x-12x-12x----|
|-10X-10x-10x-10x-10x-10x-10x-10x----|


  with effects
|---------------------------------------------------------------------|
|---------------------------------------------------------------------|
|-x-x-x-x-x-x-x-x-x-x-x-x-x-x-x-x-x-x-x-x-x-x-x-x-x-x-x-x-x-x-x-x-x-x-|
|-x-x-x-x-x-x-x-x-x-x-x-x-x-x-x-x-x-x-x-x-x-x-x-x-x-x-x-x-x-x-x-x-x-x-|
|-x-x-x-x-x-x-x-x-x-x-x-x-x-x-x-x-x-x-x-x-x-x-x-x-x-x-x-x-x-x-x-x-x-x-|
|-x-x-x-x-x-x-x-x-x-x-x-x-x-x-x-x-x-x-x-x-x-x-x-x-x-x-x-x-x-x-x-x-x-x-|


|---------------|
|---------------|
|-7b-7b-7b7--5--|
|---------------|
|---------------|
|---------------|
|
|
|---------------|
|---------------|
|-7--7--7-7--5--|
|-7--7--7-7--5--|
|-5--5--5-5--3--|
|---------------|


|----------------------------------|
|----------------------------------|
|----------------------------------|
|-7--7-7--3--3-3--7-7-7--3--3-3----| 
|-7--7-7--3--3-3--7-7-7--3--3-3----|
|-5--5-5--1--1-1--5-5-5--1--1-1----|

|----------------------------------|
|----------------------------------|
|----------------------------------|
|-7--7-7--3--3-3--7-7-7--3--3-3----| 
|-7--7-7--3--3-3--7-7-7--3--3-3----|
|-5--5-5--1--1-1--5-5-5--1--1-1----|

|-------------------------|-------------------------|
|-------------------------|-------------------------|
|-7--7--7--7--7--7--7--7--|-6--6--6--6--5--5--5--5--|
|-7--7--7--7--7--7--7--7--|-6--6--6--6--5--5--5--5--|
|-5--5--5--5--5--5--5--5--|-4--4--4--4--3--3--3--3--|
|-------------------------|-------------------------|
|    
|                                                       x4
|    
|-10-10-10-10-10-10-10-10-|-11-11-11-11-12-12-12-12-|
|-------------------------|-------------------------|
|-------------------------|-------------------------|
|-------------------------|-------------------------|
|-------------------------|-------------------------|
|-------------------------|-------------------------|


|------------------------------------|
|------------------------------------|
|------------------------------------|  
|-12X-12x-12x-12x-12x-12x-12x-12x----|
|-12X-12x-12x-12x-12x-12x-12x-12x----|
|-10X-10x-10x-10x-10x-10x-10x-10x----| 

|------------------------------------|
|------------------------------------|
|------------------------------------|  
|-12X-12x-12x-12x-12x-12x-12x-12x----|
|-12X-12x-12x-12x-12x-12x-12x-12x----|
|-10X-10x-10x-10x-10x-10x-10x-10x----|


 with effects
|---------------------------------------------------------------------|
|---------------------------------------------------------------------|
|-x-x-x-x-x-x-x-x-x-x-x-x-x-x-x-x-x-x-x-x-x-x-x-x-x-x-x-x-x-x-x-x-x-x-|
|-x-x-x-x-x-x-x-x-x-x-x-x-x-x-x-x-x-x-x-x-x-x-x-x-x-x-x-x-x-x-x-x-x-x-|
|-x-x-x-x-x-x-x-x-x-x-x-x-x-x-x-x-x-x-x-x-x-x-x-x-x-x-x-x-x-x-x-x-x-x-|
|-x-x-x-x-x-x-x-x-x-x-x-x-x-x-x-x-x-x-x-x-x-x-x-x-x-x-x-x-x-x-x-x-x-x-|


|---------------|
|---------------|
|-7b-7b-7b7--5--|
|---------------|
|---------------|
|---------------|
|
|
|---------------|
|---------------|
|-7--7--7-7--5--|
|-7--7--7-7--5--|
|-5--5--5-5--3--|
|---------------|


|----------------------------------|
|----------------------------------|
|----------------------------------|
|-7--7-7--3--3-3--7-7-7--3--3-3----| 
|-7--7-7--3--3-3--7-7-7--3--3-3----|
|-5--5-5--1--1-1--5-5-5--1--1-1----|

|----------------------------------|
|----------------------------------|
|----------------------------------|
|-7--7-7--3--3-3--7-7-7--3--3-3----| 
|-7--7-7--3--3-3--7-7-7--3--3-3----|
|-5--5-5--1--1-1--5-5-5--1--1-1----|

|-------------------------|-------------------------|
|-------------------------|-------------------------|
|-7--7--7--7--7--7--7--7--|-6--6--6--6--5--5--5--5--|
|-7--7--7--7--7--7--7--7--|-6--6--6--6--5--5--5--5--|
|-5--5--5--5--5--5--5--5--|-4--4--4--4--3--3--3--3--|
|-------------------------|-------------------------|
|    
|                                                       x4
|    
|-10-10-10-10-10-10-10-10-|-11-11-11-11-12-12-12-12-|
|-------------------------|-------------------------|
|-------------------------|-------------------------|
|-------------------------|-------------------------|
|-------------------------|-------------------------|
|-------------------------|-------------------------|


|-5-5-5-5-8--5-5-5-|-5-5-5-5-8--5-5-5-|
|-8-8-8-8-11-8-8-8-|-8-8-8-8-11-8-8-8-| 
|------------------|------------------|
|------------------|------------------|
|------------------|------------------|
|------------------|------------------|

|-5-5-5-5-8--5-5-5-|-5-5-5-5-8--5-5-5-|
|-8-8-8-8-11-8-8-8-|-8-8-8-8-11-8-8-8-| 
|------------------|------------------|
|------------------|------------------|
|------------------|------------------|
|------------------|------------------|

|-5-5-5-5-8--5-5-5-|-5-5-5-5-8--5-5-5-|
|-8-8-8-8-11-8-8-8-|-8-8-8-8-11-8-8-8-| 
|------------------|------------------|
|------------------|------------------|
|------------------|------------------|
|------------------|------------------|

|-5-5-5-5-8--5-5-5-|-5-5-5-5-8--5-5-5-|
|-8-8-8-8-11-8-8-8-|-8-8-8-8-11-8-8-8-| 
|------------------|------------------|
|------------------|------------------|
|------------------|------------------|
|------------------|------------------|

|-5-5-5-5-8--5-5-5-|-12--12--10--10---|
|-8-8-8-8-11-8-8-8-|-15--15--13--13---| 
|------------------|------------------|
|------------------|------------------|
|------------------|------------------|
|------------------|------------------|


|------------------------------------|
|------------------------------------|
|------------------------------------|  
|-12X-12x-12x-12x-12x-12x-12x-12x----|
|-12X-12x-12x-12x-12x-12x-12x-12x----|
|-10X-10x-10x-10x-10x-10x-10x-10x----| 

|------------------------------------|
|------------------------------------|
|------------------------------------|  
|-12X-12x-12x-12x-12x-12x-12x-12x----|
|-12X-12x-12x-12x-12x-12x-12x-12x----|
|-10X-10x-10x-10x-10x-10x-10x-10x----|


 with effects
|---------------------------------------------------------------------|
|---------------------------------------------------------------------|
|-x-x-x-x-x-x-x-x-x-x-x-x-x-x-x-x-x-x-x-x-x-x-x-x-x-x-x-x-x-x-x-x-x-x-|
|-x-x-x-x-x-x-x-x-x-x-x-x-x-x-x-x-x-x-x-x-x-x-x-x-x-x-x-x-x-x-x-x-x-x-|
|-x-x-x-x-x-x-x-x-x-x-x-x-x-x-x-x-x-x-x-x-x-x-x-x-x-x-x-x-x-x-x-x-x-x-|
|-x-x-x-x-x-x-x-x-x-x-x-x-x-x-x-x-x-x-x-x-x-x-x-x-x-x-x-x-x-x-x-x-x-x-|

|---------------------------------------------------------------------|
|---------------------------------------------------------------------|
|-x-x-x-x-x-x-x-x-x-x-x-x-x-x-x-x-x-x-x-x-x-x-x-x-x-x-x-x-x-x-x-x-x-x-|
|-x-x-x-x-x-x-x-x-x-x-x-x-x-x-x-x-x-x-x-x-x-x-x-x-x-x-x-x-x-x-x-x-x-x-|
|-x-x-x-x-x-x-x-x-x-x-x-x-x-x-x-x-x-x-x-x-x-x-x-x-x-x-x-x-x-x-x-x-x-x-|
|-x-x-x-x-x-x-x-x-x-x-x-x-x-x-x-x-x-x-x-x-x-x-x-x-x-x-x-x-x-x-x-x-x-x-|


|----------------------|        
|------8----10-----10--|        
|----------------------| x 8    
|----12---12-----12----|        
|-12-------------------|        
|----------------------|        


|----------------------|        
|------8----10-----10--|        
|----------------------|     
|----12---12-----12----|        
|-12-------------------|        
|----------------------|
|
|                        x 32
|
|-10-10-10-10-10-8--7--|
|-13-13-13-13-13-11-10-|
|----------------------|
|----------------------|
|----------------------|
|----------------------|
Suggest correction
comments
print report bad tab
guest
You may want to rate the tab now too:
select rating
Wanna post a correction for this tab? Suggest correction