Oops, an error
Loading. Please wait.

Brother James Bass Tab

483 views 1 this week
no commentswrite comment
1 2 3 4 5
2 more votes to show rating
add to favorites
launch autoscroll
font size
0
reset
guitar tuner
Autoscroll
slow
fast
+/-
esc
set tempo
stop
Help us to improve Ultimate-Guitar.com Take our survey!
×
Author
Brother James- Sonic Youth

intro:

G--0-0-0-0-0-0-0-0-0-0-0-0-0-0-0-| etc
D--------------------------------|
A--------------------------------|
E--------------------------------|

next part:

G--------------------------------|
D--12-12-12-12-12-12-12-12-12-12-| etc
A--------------------------------|
E--------------------------------|

and back to:

G--0-0-0-0-0-0-0-0-0-0-0-0-0-0-0-| etc
D--------------------------------|
A--------------------------------|
E--------------------------------|

There's no bass during the verses.

after first verse:

G--0-0-0-0-0-0-0-0-0-0-0-0-0-0-0-| etc
D--------------------------------|
A--------------------------------|
E--------------------------------|

after second verse:

G--0-0-0-0-0-0-0-0-0-0-0-0-0-0-0-0-0-0-0-0-0-0-0-0-0-0-0-0-0-0-0-0-|
D--------------------------------0-------------0-----------0-------|
A------------------------------------------------------------------|
E------------------------------------------------------------------|

end on open G string.
Suggest correction
Give kudos to tab author, rate the tab!
1 2 3 4 5
comments
print report bad tab
guest
You may want to rate the tab now too:
select rating
Wanna post a correction for this tab? Suggest correction