Oops, an error
Loading. Please wait.

Calming The Snake Tab

417 views 1 this week
no commentswrite comment
1 2 3 4 5
please rate
add to favorites
launch autoscroll
font size
0
reset
how to read this tab
guitar tuner
Tab Pro tools
  • play this tab
  • loop segment
  • change instrument
  • show fretboard
  • metronome
×
Best way to learn
"Calming The Snake"
Autoscroll
slow
fast
+/-
esc
set tempo
stop
Sonic Youth/Calming The Snake/The Eternal
D D D D E A
6th string is down 1 step
5th string is down 3 1/2 steps
4th string is the same
3rd string is down 2 1/2 steps
2nd string is down 3 steps
1st string is down 3 1/2 steps

Intro:
---10-3-12-12-|
-10--3--12-12-|
--------------|
--------------|
--------------|
--------------|

Breakdown:
---
---
-0-
-0-
-0-
-0-
(Slide this chord form anywhere on any frets):
---
---
-4-
-3-
-2-
-1- (still in the breakdown)

Verse:
-------------------------------------------------------------------|
-19-19-19-19-19-19-15-15-15-19-19-19-19-19-19-15-15-15-19-19-19-19-|
-19-19-19-19-19-19-15-15-15-19-19-19-19-19-19-15-15-15-19-19-19-19-|
-19-19-19-19-19-19-15-15-15-19-19-19-19-19-19-15-15-15-19-19-19-19-|
-------------------------------------------------------------------|
-------------------------------------------------------------------|

------------------------------------------------------------------|
-19-19-15-15-15--------19-19-19-19-19-19-15-15-15--------19-19-19-|
-19-19-15-15-15-333320-19-19-19-19-19-19-15-15-15-333320-19-19-19-|
-19-19-15-15-15-333320-19-19-19-19-19-19-15-15-15-333320-19-19-19-|
----------------333320----------------------------333320----------|
----------------333320----------------------------333320----------|

-------------------|
-19-19-19-15-15-15-|
-19-19-19-15-15-15-|
-19-19-19-15-15-15-|
-------------------|
-------------------|

Chorus: harm., keep repeating until next part
--------|
-12-----|
--12----|
---12---|
----12--|
-----12-|

Interlude:
1st, short improv. in the key of G maj.
Then, just drums.
Then, go up chromatically with a slide.

Outro: (in between each note should be a
quick feedback screeching sound)
-------------------|
-------------------|
-0-0-0-0-0-0hold-0-|
-0-0-0-0-0-0hold-0-|
-0-0-0-0-0-0hold-0-|
-0-0-0-0-0-0hold-0-|

Order:
Intro x4
Breakdown x4
Verse
Chorus
Breakdown x4
Verse
Chorus
Interlude
Breakdowm x4
Outro

I am not sure if I did this one perfectly... but I'm 50%
of the way through with interpreting the whole Eternal
album.  So... SONIC YAY!
comments
We did not receive enough feedback on this tab! Please rate:
print report bad tab
1 2 3 4 5
I want to post or [tab]
guest
You may want to rate the tab now too:
select rating
Please do not post tabs as comments. Select "correction" instead!