Oops, an error
Loading. Please wait.

Candle Tab

version 3
version 3

Whole song

22 views 1 this week
no commentswrite comment
1 2 3 4 5
1 last vote to show rating
add to favorites
launch autoscroll
font size
0
reset
how to read this tab
guitar tuner
Autoscroll
slow
fast
+/-
esc
set tempo
stop
Help us to improve Ultimate-Guitar.com Take our survey!
×
Author
Difficulty
novice
Tuning - U=up D=Down S=Standard (Relative to standard tuning)
Thurston Moore - ACCGG#C (Eu5 Au3 Dd2 Gs Bd3 Ed4)

Sonic Youth - Daydream Nation (album)

[Intro]

0:00 - 0:45

C |-----------4-------------|----------2-----------------------4---------------|
G#|-------4-----4---4-------|------2-----2---2-------------4-----4---4---------|
G |-----0---0-----0---- X2 -|----0---0-----0---- X2 -----0---0-----0---- X2 ---|
C |---0---------------------|--0-----------------------0-----------------------|
C |-------------------------|--------------------------------------------------|
A |-------------------------|--------------------------------------------------|



C |----------------------------------------------------------------------------|
G#|-----------2-----------------------4----------------------------------------|
G |-------2-----2---2-- X2 -------4-----4---4-- X4 ----------------------------|
C |-----2---2-----2-------------4---4-----4------------------------------------|
C |---0-----------------------0-------------------------4||/2|||||||-0|||||----|
A |---------------------------------------------------0------------------------|


C |-----------4-------------|----------2-----------------------4---------------|
G#|-------4-----4---4-------|------2-----2---2-------------4-----4---4---------|
G |-----0---0-----0---- X2 -|----0---0-----0---- X2 -----0---0-----0---- X2 ---|
C |---0---------------------|--0-----------------------0-----------------------|
C |-------------------------|--------------------------------------------------|
A |-------------------------|--------------------------------------------------|


C |-------------------------|--------------------------|
G#|-----------2-------------|----------4---------------|
G |-------2-----2---2-- X2 -|------4-----4---4-- X4 ---|
C |-----2---2-----2---------|----4---4-----4-----------|
C |---0---------------------|--0-----------------------|
A |-------------------------|--------------------------|

0:45 - 1:00

C |--------------------------|
G#|--------------------------|
G |---4|||-2|||||||----------| X4
C |---4|||-2|||||||-0|||||---|
C |---4|||-2|||||||-0|||||---|
A |--------------------------|

1:00 - 1:07

C |--------------------------------|
G#|----------------------0---------|
G |---------6--------------6-------| X2
C |-----6------6-----6-------6-----|
C |-------4------4-----4-------4---|
A |---0------------0---------------|

1:07 - 1:39

(Chords)

C |-----------|
G#|-----------|
G |---6---6---|
C |---4---6---|
C |---4---4---|
A |-----------|

1:39 - 1:58

C |---4||||||||||-2|||||||||-4||||||||||-------------------------------------------|
G#|---4||||||||||-2|||||||||-4||||||||||-2|||||||||||||-4|||||||||||||||||||||||---|
G |---0||||||||||-0|||||||||-0||||||||||-2|||||||||||||-4|||||||||||||||||||||||---|
C |---0||||||||||-0|||||||||-0||||||||||-2|||||||||||||-4|||||||||||||||||||||||---|
C |--------------------------------------2|||||||||||||-4|||||||||||||||||||||||---|
A |--------------------------------------------------------------------------------|

1:58 - 2:05

C |--------------------------------|
G#|----------------------0---------|
G |---------6--------------6-------| X2
C |-----6------6-----6-------6-----|
C |-------4------4-----4-------4---|
A |---0------------0---------------|

2:05 - 2:30

(Chords)

C |-----------|
G#|-----------|
G |---6---6---|
C |---4---6---|
C |---4---4---|
A |-----------|

2:30 - 2: 50

C |---4||||||||||-2|||||||||-4||||||||||-------------------------------------------|
G#|---4||||||||||-2|||||||||-4||||||||||-2|||||||||||||-4|||||||||||||||||||||||---|
G |---0||||||||||-0|||||||||-0||||||||||-2|||||||||||||-4|||||||||||||||||||||||---|
C |---0||||||||||-0|||||||||-0||||||||||-2|||||||||||||-4|||||||||||||||||||||||---|
C |--------------------------------------2|||||||||||||-4|||||||||||||||||||||||---|
A |--------------------------------------------------------------------------------|

2:50 - 2:56

C |--------------------------------|
G#|----------------------0---------|
G |---------6--------------6-------| X2
C |-----6------6-----6-------6-----|
C |-------4------4-----4-------4---|
A |---0------------0---------------|

2:56 - 3:46

(This part is hard to tab as it is hard to pin point exactly what Thurston is playing but it sounds like he's
playing the E open then sliding up to the end of the fret board and heavily bending the strings while
strumming, so you'll have to do some improvising)
 
[e.g]

C |--------------------------------------|
G#|-------4\\\\\22b||||||----------------|
G |-------3\\\\\21b||||||----------------|
C |-------3\\\\\20b||||||----------------|
C |-------2\\\\\19b||||||----------------|
A |---0|---------------------------------|

3:46 - 4:04

(Let the open E string ring)

C |------------------------------------------------------------|
G#|------------------------------------------------------------|
G |---4|||-2|||||||---------- 3X ---4|||-2|||||||--------------|
C |---4|||-2|||||||-0|||||----------4|||-2|||||||-0|||||-------|
C |---4|||-2|||||||-0|||||----------4|||-2|||||||-0|||||-------|
A |--------------------------------------------------------0---|

4:04 - 4:11

C |--------------------------------|
G#|----------------------0---------|
G |---------6--------------6-------| X2
C |-----6------6-----6-------6-----|
C |-------4------4-----4-------4---|
A |---0------------0---------------|

4:11 - 4:37

(Chords)

C |-----------|
G#|-----------|
G |---6---6---|
C |---4---6---|
C |---4---4---|
A |-----------|

4:37 - 4:59

(Let the last note ring out)

C |---4||||||||||-2|||||||||-4||||||||||--------------------|
G#|---4||||||||||-2|||||||||-4||||||||||-2|||||||||||||-4---|
G |---0||||||||||-0|||||||||-0||||||||||-2|||||||||||||-4---|
C |---0||||||||||-0|||||||||-0||||||||||-2|||||||||||||-4---|
C |--------------------------------------2|||||||||||||-4---|
A |---------------------------------------------------------|


*************************************************
|= Last note played
/= Slide up
\= Slide down
b= Bend
*************************************************
Suggest correction
Give kudos to tab author, rate the tab!
1 2 3 4 5
comments
print report bad tab
guest
You may want to rate the tab now too:
select rating
Wanna post a correction for this tab? Suggest correction