Oops, an error
Loading. Please wait.

Cross The Breeze Tab

version 1
version 1

Whole song

Interactive

12,827 views 12 this week
4 commentsread comments
1 2 3 4 5
excellent!
x 9
add to favorites
launch autoscroll
font size
0
reset
how to read this tab
guitar tuner
Autoscroll
slow
fast
+/-
esc
set tempo
stop
Help us to improve Ultimate-Guitar.com Take our survey!
×
Cross the Breeze of Daydream Nation (in standard tuning) - Sonic Youth
-------------------------------------------------------------------------------
Tabbed by: sonictoothache
Email: streetsweeper98@hotmail.com

Tuning: (from low to high) EADGBe 
This is as close as you're going to playing along with the record without tuning your 
guitar to a fucked tuning.
Note: to simulate Lee's part on record you could either tune your high E in sync 
with the B string and play one fingered leads along with the B string or you could just use
a chorus pedal(or a whammy pedal) and play the leads on the G string. I have written it out
in standard tunning with a chorus pedal, but if you are playing it with the high E down one
chord will have to change: xx4052 becomes xx4057.

First Intro, Thurston clean guitar with mild chorus, strum slowly or fingerpick,
but emphasis the notes on the high e and B strings.
e|-5-------3---------------------2------0------------------------------------|
B|-0-------0-------3------1------3------3------------------------------------|
G|-0-(x4)--0-(x4)--0-(x4)-0-(X4)-0-(x4)-0-(stay on this chord for a while,---|
D|-2-------2-------2------2------2------2-about 3 times more than the others-|  X3
A|-3-------3-------3------3------3------3-you can also do hammer on/pull offs|
E|----------------------------------------on the A between open and 2nd fret)|
 |Lee
e|---------------------------------------------------------------------------|
B|-(Lee comes in on the 3rd time as thurston is fading out-------------------| 
G|---------------------------------------------------------------------------|
D|---------------------------------------------------------------------------|
A|---------------------------------------------------------------------------|
E|------------------------------------------0-0-0-0--0-0-0-0-0-0-0-----------|


Second Intro, distortion, fast downstrokes(exact strumming not shown, 
throw in some crazy tremolo picking)
e|----------------------------------------------------------------------|
B|----------------------------------------------------------------------|
G|-------6-6-6-6-6-6-6-6-6-6------9--9--9---9--9--9----9--9--9---9--9--9|
D|-------7-7-7h8-8-8-8p7-7-7------11-11--11h10-10-10--10-10--10-10-10-10|  X2 
A|---/0--0-0-0-0-0-0-0-0-0-0------x--x--x---x--x--x----x--x--x---x--x--x|
E|---/5--5-5-5-5-5-5-5-5-5-5------8--8--8---8--8--8----8--8--8---8--8--8|

Thurston
e|-----------------------------------------------------|
B|-----------------------------------------------------|
G|------6-6-6-6-6-6-6-6-6-6------9--9--9---9--9--9-----|
D|------7-7-7h8-8-8-8p7-7-7-----11-11--11h10-10-10-----|  X4 with band 
A|------0-0-0-0-0-0-0-0-0-0------x--x--x---x--x--x---\x|
E|------5-5-5-5-5-5-5-5-5-5------8--8--8---8--8--8---\x|
 |Lee- palm mute, hold on and bend up 1/2 11 fret on G while playing 
 | 7th fret on A, then do a downstroke on the chord and let ring, rhythm not shown
e|-----------------------------------------------------------|
B|------------------------8-------------------------8--------|
G|-----------------------11b1/2---------------------11b1/2---|
D|------------------------8-------------------------8--------|
A|------x-7-x-7-x-7-x-7-x-9-------x-7-x-7-x-7-x-7-x-9--------|
E|------0-x-0-x-0-x-o-x-o---------0-x-0-x-0-x-o-x-o----------|

Thurston- switch to moderately clean distortion
e|------0------0------|
B|------0------0------|
G|--9-9-9--9-9-9------|
D|--9-9----9-9--------|  X5 strum rapidly and loosely letting notes ring
A|--7-7----7-7--------|
E|--0-0----0-0--------|
 |Lee- use distortion(fuzz) and a chorus pedal.
e|--------------------|
B|--0-----------------|
G|----------0---------|
D|-/9-----------------|
A|----/7--/10b1/4--7--|
E|-----0-----------o--|
   ~   ~           ~


e|-----------------------|
B|-----------------------|
G|--9/-8-8-8-\-8---------|    x8, then back to second intro riff, the E chord, 
D|--6/-5-5-5-\-6---------|    then back again to this chord.
A|--7/-6-6-6-\-7---------|           
E|-----------------------|
 |
e|-----------------------|
B|-----------------------|
G|-----------------------|
D|-----------------------|
A|---7/6-6-6-\-7---------|
E|-----------------------|


Thurston- back to clean tone. G chord 2nd time (xx5033) is optional, sounds 
more jangly than a G5
e|--0------0------0-0--------------------------0------0-0----------3--3--3-----0------0-0-| 
B|--0------0------0-0--------------------------0------0-0----------3--3--3-----0------0-0-|
G|--9--9-9-9--9-9-9-9--9-9-/x--------------9-9-9--9-9-9-9--9-9-\x--0--0--0-9-9-9--9-9-9-9-|
D|--9--9-9----9-9------9-9-/x12--12-12-----9-9----9-9------9-9-\x--5--5--5-9-9----9-9-----|
A|--7--7-7----7-7------7-7-/x10--10-10-----7-7----7-7------7-7-\x----------7-7----7-7-----|
E|--0--x-x----0-0------0-0-----------------x-x----0-0------0-0-------------x-x----0-0-----|
 |Lee palm mute 2, downstroke and let chord ring                                           
e|-----------2-------------------------------------5-------------------------------5------|
B|-----------5-------------------------------------5------------------------------ 5------|
G|-----------0-------------------------------------0-------------------------------0------|
D|---2-2-2-2-4b1/2-------------------------2-2-2-2-4b1/2-------------------2-2-2-2-4b1/2--|
A|----------------------------------------------------------------------------------------|
E|--0-------------------------------------------------------------------------------------|

|-------------------0------0------0-0---------------------|
|-------------------0------0------0-0---------------------|
|-9-9-/x------------9--9-9-9--9-9-9-9--9-9-/x-------------|
|-9-9-/x12--12-12---9--9-9----9-9------9-9-/x12--12-12----|
|-7-7-/x10--10-10---7--7-7----7-7------7-7-/x10--10-10----|
|-0-0---------------0--x-x----0-0------0-0----------------|
|                                                           
|----------------------------------------0-0-0-0-0-0-0-0-0|
|------------------------5-5-5-5-5-5-5-5-5-5--5--5-5--5---|
|---------------------------------------------------------|
|---------------------------------------------------------|
|---------------------------------------------------------|
|---------------------------------------------------------|

  Thurston
e|----------2p0-(0)-(0)-(0)--5-5-3-3-------|
B|---------------5---5---5-----------3-1-x-|
G|--x-0-0-x--------------------------------|
D|--x-2-2-x--------------------------------|
A|--x-3-3-x--------------------------------|
E|-----------------------------------------|
 | Lee(with chorus and distortion)           x2
e|-----------------------------------------|
B|-----------------------------------------|
G|----7-9-9-(9)\---------------------------|
D|-----------------------------------------|
A|-----------------------------------------|
E|-----------------------------------------|
          

Verse 1(2:25)'let's go walkin on water...'
e|--0------0------0-0----------------------| 
B|--0------0------0-0----------------------|
G|--9--9-9-9--9-9-9-9--9-9-/x--------------|
D|--9--9-9----9-9------9-9-/x12--12-12-----|
A|--7--7-7----7-7------7-7-/x10--10-10-----|
E|--0--x-x----0-0------0-0-----------------|
 |                                           x2
e|-----------------------------------------|
B|-----------7-----------------------------|
G|--7h9-9-7-----7-7-7h9-7------------------|
D|-----------------------------------------|
A|-----------------------------------------|
E|-----------------------------------------|
    
Chorus 1(2:30) 'I wanna know...'
e|----------2p0-(0)-(0)-(0)--5-5-3-3-------|
B|---------------5---5---5-----------3-1-x-|
G|--x-0-0-x--------------------------------|
D|--x-2-2-x--------------------------------|
A|--x-3-3-x--------------------------------|
E|-----------------------------------------|
 | Lee(with chorus and distortion)           x2
e|-----------------------------------------|
B|-----------------------------------------|
G|----7h9-9-(9)\---------------------------|
D|------~----------------------------------|
A|-----------------------------------------|
E|-----------------------------------------|
     

Verse 2(2:35)'No need to be scared...'
e|--0------0------0-0----------------------| 
B|--0------0------0-0----------------------|
G|--9--9-9-9--9-9-9-9--9-9-/x--------------|
D|--9--9-9----9-9------9-9-/x12--12-12-----|
A|--7--7-7----7-7------7-7-/x10--10-10-----|
E|--0--x-x----0-0------0-0-----------------|
 |                                           x2
e|-----------------------------------------|
B|--0-------0----0--0---0-0---0---0--------|
G|--3b4-3h4----4--3---3---3b4-3b4-3b4------|
D|-----------------------------------------|
A|-----------------------------------------|
E|-----------------------------------------|

Chorus 2(2:41) 'I wanna know...'
e|----------2p0-(0)-(0)-(0)--5-5-3-3---------------|
B|---------------5---5---5-----------3-1-x---------|
G|--x-0-0-x----------------------------------------|
D|--x-2-2-x----------------------------------------|x2
A|--x-3-3-x----------------------------------------|
E|-------------------------------------------------|
 | Lee(with chorus and fuzz distortion)notes on B and high e on second time           
e|---------------------------------------------7-8-|
B|-----------7-----------7-----------7-7-8-10-(0-0)|
G|-7h9-9--7\---7h9-9-(9)\--7h9-9-7-----------------|
D|--------~----------------------------------------|
A|-------------------------------------------------|
E|-------------------------------------------------|

Verse 3(2:47)'No need to be scared...'
e|--0------0------0-0----------------------| 
B|--0------0------0-0----------------------|
G|--9--9-9-9--9-9-9-9--9-9-/x--------------|
D|--9--9-9----9-9------9-9-/x12--12-12-----|
A|--7--7-7----7-7------7-7-/x10--10-10-----|
E|--0--x-x----0-0------0-0-----------------|
 |                                           x2
e|--------------------------/x--/x---/x--/x|
B|--------------------------random sliding-|
G|--5---------4b---------------------------|
D|-----------------------------------------|
A|-----------------------------------------|
E|-----------------------------------------|

Chorus 3(2:52) 'I wanna know...'
e|----------2p0-(0)-(0)-(0)--5-5-3-3-------|
B|---------------5---5---5-----------3-1-x-|
G|--x-0-0-x--------------------------------|
D|--x-2-2-x--------------------------------|
A|--x-3-3-x--------------------------------|
E|-----------------------------------------|
 | Lee(with chorus and distortion)           x2
e|-----------------------------------------|
B|-----------------------------------------|
G|----7h9-9-(9)\---------------------------|
D|------~----------------------------------|
A|-----------------------------------------|
E|-----------------------------------------|


Verse 4(2:57)'Lets go walking on water...'
e|--0------0------0-0----------------------| 
B|--0------0------0-0----------------------|
G|--9--9-9-9--9-9-9-9--9-9-/x--------------|
D|--9--9-9----9-9------9-9-/x12--12-12-----|
A|--7--7-7----7-7------7-7-/x10--10-10-----|
E|--0--x-x----0-0------0-0-----------------|
 |                                           x2
e|--8--------7--------------/x--/x---/x--/x|
B|--0--------0--------------random sliding-|
G|-------------4b--------------------------|
D|-----------------------------------------|
A|-----------------------------------------|
E|-----------------------------------------|


Chorus 4(3:02) 'I wanna know...'
e|----------2p0-(0)-(0)-(0)--5-5-3-3-------|
B|---------------5---5---5-----------3-1-x-|
G|--x-0-0-x--------------------------------|
D|--x-2-2-x--------------------------------|
A|--x-3-3-x--------------------------------|
E|-----------------------------------------|
 | Lee(with chorus and distortion)           x2
e|-----------------------------------------|
B|-----------------------------------------|
G|----7h9-9-(9)\---------------------------|
D|------~----------------------------------|
A|-----------------------------------------|
E|-----------------------------------------|

Verse 5(3:08)'Judge me to the quit...'
e|--0------0------0-0----------------------| 
B|--0------0------0-0----------------------|
G|--9--9-9-9--9-9-9-9--9-9-/x--------------|
D|--9--9-9----9-9------9-9-/x12--12-12-----|
A|--7--7-7----7-7------7-7-/x10--10-10-----|
E|--0--x-x----0-0------0-0-----------------|
 |                                           x2
e|-----------------------------------------|
B|--0-------0----0--0---0-0---0---0--------|
G|--3b4-3h4----4--3---3---3b4-3b4-3b4------|
D|-----------------------------------------|
A|-----------------------------------------|
E|-----------------------------------------|

Chorus 5(3:13) 'I wanna know...'
e|----------2p0-(0)-(0)-(0)--5-5-3-3-------|
B|---------------5---5---5-----------3-1-x-|
G|--x-0-0-x--------------------------------|
D|--x-2-2-x--------------------------------|
A|--x-3-3-x--------------------------------|
E|-----------------------------------------|
 | Lee(with chorus and distortion)           x2
e|-----------------------------------------|
B|-----------------------------------------|
G|----7h9-9-(9)\---------------------------|
D|------~----------------------------------|
A|-----------------------------------------|
E|-----------------------------------------|

Verse 6(3:18) 'I tried for the future...'
e|----0------0-0--------------------0------0------0-0---------------------|
B|----0------0-0--------------------0------0------0-0---------------------|
G|9-9-9--9-9-9-9--9-9-/x------------9--9-9-9--9-9-9-9--9-9-/x-------------|
D|9-9----9-9------9-9-/x12--12-12---9--9-9----9-9------9-9-/x12--12-12----|
A|7-7----7-7------7-7-/x10--10-10---7--7-7----7-7------7-7-/x10--10-10----|
E|x-x----0-0------0-0---------------0--x-x----0-0------0-0----------------|
 |                                              Tremolo pick w/slight bends 
e|----0--0--0-0-0--0-0--0--0--0-0--0-0---0---0----------------------------|
B|------------------------------------------------------------------------|
G|----9--9--9-9-9--9-9--9--9--9-9--9-9---9---9--9b-----11b---------12b/---|
D|------~-----------------------------------------------------------------|
A|------------------------------------------------------------------------|
E|------------------------------------------------------------------------|

Chorus 6(3:24) 'I wanna know...'
e|----------2p0-(0)-(0)-(0)--5-5-3-3-------|
B|---------------5---5---5-----------3-1-x-|
G|--x-0-0-x--------------------------------|
D|--x-2-2-x--------------------------------|
A|--x-3-3-x--------------------------------|
E|-----------------------------------------|
 | Lee(with chorus and distortion)           x2
e|-----------------------------------------|
B|-----------------------------------------|
G|----7h9-9-(9)\---------------------------|
D|------~----------------------------------|
A|-----------------------------------------|
E|-----------------------------------------|

Verse 7(3:29) 'I took a look into your hate...'
e|----0------0-0--------------------0------0------0-0---------------------|
B|----0------0-0--------------------0------0------0-0---------------------|
G|9-9-9--9-9-9-9--9-9-/x------------9--9-9-9--9-9-9-9--9-9-/x-------------|
D|9-9----9-9------9-9-/x12--12-12---9--9-9----9-9------9-9-/x12--12-12----|
A|7-7----7-7------7-7-/x10--10-10---7--7-7----7-7------7-7-/x10--10-10----|
E|x-x----0-0------0-0---------------0--x-x----0-0------0-0----------------|
 |                                              Tremolo pick on high E only 
e|--/12-------10--------10-------8---------7b-----------------------------|
B|-------------------------------0---------0------------------------------|
G|-------------------------------------------------7------5-------4-------|
D|------------------------------------------------------------------------|
A|------------------------------------------------------------------------|
E|------------------------------------------------------------------------|

Chorus 7(3:35) 'I wanna know...'
e|----------2p0-(0)-(0)-(0)--5-5-3-3-------|
B|---------------5---5---5-----------3-1-x-|
G|--x-0-0-x--------------------------------|
D|--x-2-2-x--------------------------------|
A|--x-3-3-x--------------------------------|
E|-----------------------------------------|
 | Lee(with chorus and distortion)           x2
e|-----------------------------------------|
B|-----------------------------------------|
G|----7h9-9-(9)\---------------------------|
D|------~----------------------------------|
A|-----------------------------------------|
E|-----------------------------------------|

Verse 8(3:40) 'Hold me tight...'
e|----0------0-0--------------------0------0------0-0---------------------|
B|----0------0-0--------------------0------0------0-0---------------------|
G|9-9-9--9-9-9-9--9-9-/x------------9--9-9-9--9-9-9-9--9-9-/x-------------|
D|9-9----9-9------9-9-/x12--12-12---9--9-9----9-9------9-9-/x12--12-12----|
A|7-7----7-7------7-7-/x10--10-10---7--7-7----7-7------7-7-/x10--10-10----|
E|x-x----0-0------0-0---------------0--x-x----0-0------0-0----------------|
 |                                                         + harmonic
e|----0--0--0-0-0--0-0--0--0--0-0--0-0---0---0----------------------------|
B|------------------------------------------------------------------------|
G|----9--9--9-9-9--9-9--9--9--9-9--9-9---9---9----------------------------|
D|------~-----------------------------------------------------------------|
A|----------------------------------------------------------7-------------|
E|------------------------------------------------------------------------|

Chorus 8(3:45) 'I wanna know...'
e|----------2p0-(0)-(0)-(0)--5-5-3-3-------|
B|---------------5---5---5-----------3-1-x-|
G|--x-0-0-x--------------------------------|
D|--x-2-2-x--------------------------------|
A|--x-3-3-x--------------------------------|
E|-----------------------------------------|
 | Lee(with chorus and distortion)           x2
e|-----------------------------------------|
B|-----------------------------------------|
G|----7h9-9-(9)\---------------------------|
D|------~----------------------------------|
A|-----------------------------------------|
E|-----------------------------------------|

Bridge 1(3:50)
e|---------------0--0--0--0--0--0--------------------0--0--0--0--0--0-----|
B|0-0-0--0-0-0---x--x--x--x--x--x-----0-0-0--0-0-0---x--x--x--x--x--x-----|
G|8-8-8--8-8-8-x-9--9--9--9--9--9-----8-8-8--8-8-8-x-9--9--9--9--9--9-----|
D|9-9-9--9-9-9-x-10-10-10-10-10-10----9-9-9--9-9-9-x-10-10-10-10-10-10/---|
A|x-x-x--x-x-x-x-x--x--x--x--x--x-----x-x-x--x-x-x-x-x--x--x--x--x--x-/---|
E|7-7-7--7-7-7-x-8--8--8--8--8--8-----7-7-7--7-7-7-x-8--8--8--8--8--8-/---|
 |       Notes in brackets are optional, but sound very close the recording                 
e|-8-8-8--8-8-8--7--7--7--7--7--7-----5-5-5--5-5-5---3--3--3--3--3--3-----|
B|101010-101010--8--8--8--8--8--8-----7-7-7--7-7-7---5--5--5--5--5--5-----|
G|(0-0-0-0-0-0---0--0--0--0--0--0-----0-0-0--0-0-0---0--0--0--0--0--0)----|
D|(9-9-9-9-9-9--10-10-10-10-10-10-----7-7-7--7-7-7---5--5--5--5--5--5)----|
A|------------------------------------------------------------------------|
E|------------------------------------------------------------------------|

Chorus 9(3:55) 'I wanna know...'
e|----------2p0-(0)-(0)-(0)--5-5-3-3-------|
B|---------------5---5---5-----------3-1-x-|
G|--x-0-0-x--------------------------------|
D|--x-2-2-x--------------------------------|
A|--x-3-3-x--------------------------------|
E|-----------------------------------------|
 | Lee(with chorus and distortion)           x2
e|-----------------------------------------|
B|-----------------7-----------------------|
G|----7h9-9-(9)\-----7----7----------------|
D|------~----------------------------------|
A|-----------------------------------------|
E|-----------------------------------------|

Bridge 2(4:00)
e|---------------0--0--0--0--0--0--------------------0--0--0--0--0--0-----|
B|0-0-0--0-0-0---x--x--x--x--x--x-----0-0-0--0-0-0---x--x--x--x--x--x-----|
G|8-8-8--8-8-8-x-9--9--9--9--9--9-----8-8-8--8-8-8-x-9--9--9--9--9--9-----|
D|9-9-9--9-9-9-x-10-10-10-10-10-10----9-9-9--9-9-9-x-10-10-10-10-10-10----|
A|x-x-x--x-x-x-x-x--x--x--x--x--x-----x-x-x--x-x-x-x-x--x--x--x--x--x-----|
E|7-7-7--7-7-7-x-8--8--8--8--8--8-----7-7-7--7-7-7-x-8--8--8--8--8--8-----|
 |                                                         
e|------------------------------------------------------------------------|
B|-0-0-0-0-0-0-x-0-10-10--10-8-8-8-7-7h8-7-5-5-5/7-7-5--------------------|
G|-4-4-4-4-4-4------------------------------------------------------------|
D|------------------------------------------------------------------------|
A|------------------------------------------------------------------------|
E|------------------------------------------------------------------------|

Chorus 10(4:05) 'I wanna know...'
e|----------2p0-(0)-(0)-(0)--5-5-3-3-------|
B|---------------5---5---5-----------3-1-x-|
G|--x-0-0-x--------------------------------|
D|--x-2-2-x--------------------------------|
A|--x-3-3-x--------------------------------|
E|-----------------------------------------|
 | Lee(with chorus and distortion)           x2
e|-----------------------------------------|
B|-----------------------------------------|
G|----7h9-9-(9)\---------------------------|
D|------~----------------------------------|
A|-----------------------------------------|
E|-----------------------------------------|


Bridge 3 (4:12)'Burning 'cross the breeze'
e|---------------0--0--0--0--0--0-----|
B|0-0-0--0-0-0---x--x--x--x--x--x-----|
G|8-8-8--8-8-8-x-9--9--9--9--9--9-----|
D|9-9-9--9-9-9-x-10-10-10-10-10-10----|
A|x-x-x--x-x-x-x-x--x--x--x--x--x-----|
E|7-7-7--7-7-7-x-8--8--8--8--8--8-----|
 |                                                         
e|------------------------------------| x3
B|--7h10--10--10-10--10-8-8-7h5--3h5-3|
G|------------------------------------|
D|------------------------------------|
A|------------------------------------|
E|------------------------------------|

Bridge continued
e|----------------------------------------------------------------------|
B|----------------------------------------------------------------------|
G|-------6-6-6-6-6-6-6-6-6-6------9--9--9---9--9--9----9--9--9---9--9--9|
D|-------7-7-7h8-8-8-8p7-7-7------11-11--11h10-10-10--10-10--10-10-10-10| x3   
A|---/0--0-0-0-0-0-0-0-0-0-0------x--x--x---x--x--x----x--x--x---x--x--x|
E|---/5--5-5-5-5-5-5-5-5-5-5------8--8--8---8--8--8----8--8--8---8--8--8|
 |
e|------------------------------------| 
B|--7h10--10--10-10--10-8-8-7h5--3h5-3|                                     
G|------------------------------------|
D|------------------------------------|
A|------------------------------------|
E|------------------------------------|


Thurston (4:33)
e|-----------------------------------------------------|
B|-----------------------------------------------------|
G|------6-6-6-6-6-6-6-6-6-6------9--9--9---9--9--9-----|
D|------7-7-7h8-8-8-8p7-7-7-----11-11--11h10-10-10-----|  X4 with band 
A|------0-0-0-0-0-0-0-0-0-0------x--x--x---x--x--x---\x|
E|------5-5-5-5-5-5-5-5-5-5------8--8--8---8--8--8---\x|
 |Lee- palm mute, hold on and bend up 1/2 11 fret on G while playing 
 | 7th fret on A, then do a downstroke on the chord and let ring, rhythm not shown
e|-----------------------------------------------------------|
B|------------------------8-------------------------8--------|
G|-----------------------11b1/2---------------------11b1/2---|
D|------------------------8-------------------------8--------|
A|------x-7-x-7-x-7-x-7-x-9-------x-7-x-7-x-7-x-7-x-9--------|
E|------0-x-0-x-0-x-o-x-o---------0-x-0-x-0-x-o-x-o----------|


Thurston- switch to moderately clean distortion
e|------0------0------|
B|------0------0------|
G|--9-9-9--9-9-9------|
D|--9-9----9-9--------|  X5 strum rapidly and loosely letting notes ring
A|--7-7----7-7--------|
E|--0-0----0-0--------|
 |Lee- use distortion(fuzz) and a chorus pedal.
e|--------------------|
B|--0-----------------|
G|----------0---------|
D|-/9-----------------|
A|----/7--/10b1/4--7--|
E|-----0-----------o--|


(4:54)
e|-----------------------|
B|-----------------------|
G|--9/-8-8-8-\-8---------|    x8, then end on E(079900)
D|--6/-5-5-5-\-6---------|    
A|--7/-6-6-6-\-7---------|           
E|-----------------------|
 |
e|-----------------------|
B|-----------------------|
G|-----------------------|
D|-----------------------|
A|---7/6-6-6-\-7---------|
E|-----------------------|

Post song jam (5:18)
Thurston-use palm mutes and scratches. do each chord progression twice.
e|-x-0--0--0--0--0--0--0--3--3--3--3---x--2-2-2-2-0-0-0-0----------|
B|-x-0--0--0--0--0--0--0--0--0--0--0---x--3-3-3-3-3-3-3-3----------|
G|-x-4--4--4--4--4--4--4--4--4--4--4---x--0-0-0-0-0-0-0-0----------|
D|-x-2--2--2--2--2--2--2--2--2--2--2---x--2-2-2-2-2-2-2-2----------| Lee just improvises
A|----------------------------------------3-3-3-3-3-3-3-3----------| on the main lead line
E|-----------------------------------------------------------------| and the verse notes.

the ending(6:20)Lee just slides up with slide while Thurston does the first intro chords 
at a faster tempo.







Damn that took ages. I might do 'Dissaperear' off Goo, if possible. Look out for some John
Mclaughlin stuff in the future




| /  slide up
| \  slide down
| h  hammer-on
| p  pull-off
| ~  vibrato
| +  harmonic
| x  Mute note
===================================================
Suggest correction
comments
print report bad tab
4 comments total. Showing first comments.
0 reply
sonictoothache 569 wrote on April 9 2006, 08:30 am

my bad, the very last 2 chords in the tab should be:
E-2 E-0
B-3 B-3
G-0 and G-0
D-2 D-2
A-3 A-3
E-x E-x

+1 reply
benjidude945 113 wrote on July 13 2008, 08:08 pm

holy crap!
sonic youth, WITHOUT WEIRD TUNINGS
****ing awesome, the intro sounds beautiful

0 reply
rellty 10 wrote on February 9 2011, 11:32 am

this is awesome, thanks man!!

guest
You may want to rate the tab now too:
select rating
Please do not post tabs as comments. Select "correction" instead!