Oops, an error
Loading. Please wait.

Cross The Breeze tab

version 2
version 2

Whole song

Interactive

373 views 6 this week
1 commentread comment
1 2 3 4 5
2 more votes to show rating
add to favorites
×
Save as Personal and add changes to this tab that will be seen only by you. Learn more ›
×
You can save this tab as Personal to edit and correct it or add notes. All changes will be seen only by you. Learn more »
launch autoscroll
font size
0
reset
how to read this tab
guitar tuner
edit
Autoscroll
slow
fast
+/-
esc
set tempo
stop
Author
Difficulty
ARTIST: Sonic Youth
SONG: "'Cross the Breeze"
ALBUM: Daydream Nation (1988)



TUNING: Thurston (C-C-E-B-G-D), Lee (E-E-E-E-F#-F#)



---THURSTON'S PART---



INTRO:
D|-7--7--7--5-----5--5--5--0--0--0--0-----0--0--0--0--0--0--0-----0--0--0--0--0--0--0-----0--0--0-|
G|-0--0--0--0-----0--0--0--7--7--7--5-----5--5--5--0--0--0--0-----0--0--0--0--0--0--0-----0--0--0-|
B|-0--0--0--0-----0--0--0--0--0--0--0-----0--0--0--7--7--7--5-----5--5--5--5--5--5--5-----5--5--5-|
E|-0--0--0--0-----0--0--0--0--0--0--0-----0--0--0--0--0--0--0-----0--0--0--0--0--0--0-----0--0--0-|
C|-0--0--0--0-----0--0--0--0--0--0--0-----0--0--0--0--0--0--0-----0--0--0--0--0--0--0-----0--0--0-|
C|-0--0--0--0-----0--0--0--0--0--0--0-----0--0--0--0--0--0--0-----0--0--0--0--0--0--0-----0--0--0-|
+
D|-0--0--0--0-----0--0--0--7--7--7--5-----5--5--5--0--0--0--0-----0--0--0--0--0--0--0-----0--0--0-|
G|-0--0--0--0-----0--0--0--0--0--0--0-----0--0--0--7--7--7--5-----5--5--5--0--0--0--0-----0--0--0-|
B|-5--5--5--5-----5--5--5--0--0--0--0-----0--0--0--0--0--0--0-----0--0--0--7--7--7--5-----5--5--5-|
E|-0--0--0--0-----0--0--0--0--0--0--0-----0--0--0--0--0--0--0-----0--0--0--0--0--0--0-----0--0--0-|
C|-0--0--0--0-----0--0--0--0--0--0--0-----0--0--0--0--0--0--0-----0--0--0--0--0--0--0-----0--0--0-|
C|-0--0--0--0-----0--0--0--0--0--0--0-----0--0--0--0--0--0--0-----0--0--0--0--0--0--0-----0--0--0-|
+
D|-0--0--0--0-----0--0--0--0--0--0--0-----0--0--0--7--7--7--5-----5--5--5--0--0--0--0-----0--0--0-|
G|-0--0--0--0-----0--0--0--0--0--0--0-----0--0--0--0--0--0--0-----0--0--0--7--7--7--5-----5--5--5-|
B|-5--5--5--5-----5--5--5--5--5--5--5-----5--5--5--0--0--0--0-----0--0--0--0--0--0--0-----0--0--0-|
E|-0--0--0--0-----0--0--0--0--0--0--0-----0--0--0--0--0--0--0-----0--0--0--0--0--0--0-----0--0--0-|
C|-0--0--0--0-----0--0--0--0--0--0--0-----0--0--0--0--0--0--0-----0--0--0--0--0--0--0-----0--0--0-|
C|-0--0--0--0-----0--0--0--0--0--0--0-----0--0--0--0--0--0--0-----0--0--0--0--0--0--0-----0--0--0-|
+
D|-0--0--0--0-----0--0--0--0--0--0--0-----0--0--0--0--0--0--0-------------------------------------|
G|-0--0--0--0-----0--0--0--0--0--0--0-----0--0--0--0--0--0--0-------------------------------------|
B|-7--7--7--5-----5--5--5--5--5--5--5-----5--5--5--5--5--5--5-------------------------------------|
E|-0--0--0--0-----0--0--0--0--0--0--0-----0--0--0--0--0--0--0-------------------------------------|
C|-0--0--0--0-----0--0--0--0--0--0--0-----0--0--0--0--0--0--0-------------------------------------|
C|-0--0--0--0-----0--0--0--0--0--0--0-----0--0--0--0--0--0--0-------------------------------------|
+
D|------------------------------------------------------------------------------------------------|
G|------------------------------------------------------------------------------------------------|
B|------------------------------------------------------------------------------------------------|
E|------------------------------------------------------------------------------------------------|
C|/9-----9-----9--9--9--9--10-10-10-10-10-9--9--9--13-13-13-13-13-13-13-13-13-13-13-13-13-13-13-13|
C|/9-----9-----9--9--9--9--9--9--9--9--9--9--9--9--0--0--0--0--0--0--0--0--12-12-12-12-12-12-12-12|
+
D|------------------------------------------------------------------------------------------------|
G|------------------------------------------------------------------------------------------------|
B|-------------------------------------------------0----------------------------------------------|
E|-------------------------------------------------x----------------------------------------------|
C|-9--9--9--9--9--9--9--9--10-10-10-10-10-9--9--9--13-13-13-13-13-13-13-13-13-13-13-13-13-13-13-13|
C|-9--9--9--9--9--9--9--9--9--9--9--9--9--9--9--9--0--0--0--0--0--0--0--0--12-12-12-12-12-12-12-12|
+
D|------------------------------------------------------------------------------------------------||
G|------------------------------------------------------------------------------------------------||
B|------------------------------------------------------------------------------------------------|| x 4
E|------------------------------------------------------------------------------------------------||
C|-9--9--9--9--9--9--9--9--10-10-10-10-10-9--9--9--13-13-13-13-13-13-13-13-13-13-13-13-13-13-13-13||
C|-9--9--9--9--9--9--9--9--9--9--9--9--9--9--9--9--0--0--0--0--0--0--0--0--12-12-12-12-12-12-12-12||
+
D|-x--x--x--x--x--x--x--x--x--x--x--x--x--x--x--x--x--x--x--x--x--x--x--x--x--x--x--x--x--x--x--x-||
G|-4--4--4--4--4--4--4--4--4--4--4--4--4--4--4--4--4--4--4--4--4--4--4--4--4--4--4--4--4--4--4--4-||
B|-0--0--0--0--0--0--0--0--0--0--0--0--0--0--0--0--0--0--0--0--0--0--0--0--0--0--0--0--0--0--0--0-|| x 2
E|-0--0--0--0--0--0--0--0--0--0--0--0--0--0--0--0--0--0--0--0--0--0--0--0--0--0--0--0--0--0--0--0-||
C|-4--4--4--4--4--4--4--4--4--4--4--4--4--4--4--4--4--4--4--4--4--4--4--4--4--4--4--4--4--4--4--4-||
C|-4--4--4--4--4--4--4--4--4--4--4--4--4--4--4--4--4--4--4--4--4--4--4--4--4--4--4--4--4--4--4--4-||
+
D|------------------------------------------------------------------------------------------------||
G|------------------------------------------------------------------------------------------------||
B|------------------------------------------------------------------------------------------------|| x 2
E|------------------------------------------------------------------------------------------------||
C|-4-\3--3--3--3--3--3--3--4-\3--3--3--3--3--3--3--4-\3--3--3--3--3--3--3--4-\3--3--3--3--3--3--3-||
C|-4-\3--3--3--3--3--3--3--4-\3--3--3--3--3--3--3--4-\3--3--3--3--3--3--3--4-\3--3--3--3--3--3--3-||
+
D|------------------------------------------------------------------------------------------------||
G|------------------------------------------------------------------------------------------------||
B|------------------------------------------------------------------------------------------------|| x 4
E|------------------------------------------------------------------------------------------------||
C|-9--9--9--9--9--9--9--9--10-10-10-10-10-9--9--9--13-13-13-13-13-13-13-13-13-13-13-13-13-13-13-13||
C|-9--9--9--9--9--9--9--9--9--9--9--9--9--9--9--9--0--0--0--0--0--0--0--0--12-12-12-12-12-12-12-12||
+
D|-x--x--x--x--x--x--x--x--x--x--x--x--x--x--x--x--x--x--x--x--x--x--x--x--x--x--x--x--x--x--x--x-||
G|-4--4--4--4--4--4--4--4--4--4--4--4--4--4--4--4--4--4--4--4--4--4--4--4--4--4--4--4--4--4--4--4-||
B|-0--0--0--0--0--0--0--0--0--0--0--0--0--0--0--0--0--0--0--0--0--0--0--0--0--0--0--0--0--0--0--0-|| x 2
E|-0--0--0--0--0--0--0--0--0--0--0--0--0--0--0--0--0--0--0--0--0--0--0--0--0--0--0--0--0--0--0--0-||
C|-4--4--4--4--4--4--4--4--4--4--4--4--4--4--4--4--4--4--4--4--4--4--4--4--4--4--4--4--4--4--4--4-||
C|-4--4--4--4--4--4--4--4--4--4--4--4--4--4--4--4--4--4--4--4--4--4--4--4--4--4--4--4--4--4--4--4-||
+
D|------------------------------------------------------------------------------------------------||
G|------------------------------------------------------------------------------------------------||
B|------------------------------------------------------------------------------------------------|| x 2
E|------------------------------------------------------------------------------------------------||
C|-4-\3--3--3--3--3--3--3--4-\3--3--3--3--3--3--3--4-\3--3--3--3--3--3--3--4-\3--3--3--3--3--3--3-||
C|-4-\3--3--3--3--3--3--3--4-\3--3--3--3--3--3--3--4-\3--3--3--3--3--3--3--4-\3--3--3--3--3--3--3-||
+
D|-x--x--x--x--x--x--x--x--x--x--x--x--x--5--x--5--x--x--x--x--x--x--x--x--x--x--x--x--x--5--x--5-||
G|-x--x--4--x--4--4--x--4--x--4--4--4--4--0--x--0--x--x--4--x--4--4--x--4--x--4--4--4--4--0--x--0-||
B|-0--0--0--0--0--0--0--0--0--0--0--0--0--0--0--0--0--0--0--0--0--0--0--0--0--0--0--0--0--0--0--0-|| x 2
E|-0--0--0--0--0--0--0--0--0--0--0--0--0--0--0--0--0--0--0--0--0--0--0--0--0--0--0--0--0--0--0--0-||
C|-4--4--4--4--4--4--4--4--4--4--4--4--4--4--4--4--4--4--4--4--4--4--4--4--4--4--4--4--4--4--4--4-||
C|-4--4--4--4--4--4--4--4--4--4--4--4--4--4--4--4--4--4--4--4--4--4--4--4--4--4--4--4--4--4--4--4-||
+
D|-------------------------------------7--5--------------------------------------------7--5-------|
G|-------------7--x--x--5-----5--5--5--------7--5--------------7--x--x--5-----5--5--5--------7--5-|
B|-------------7--x--x--5-----5--5--5--------------------------7--x--x--5-----5--5--5-------------|
E|-0-----0--0--0--0--0--0-----0--0--0--------------0--0--0--0--0--0--0--0-----0--0--0-------------|
C|-0-----0--0--0--0--0--0-----0--0--0--------------0--0--0--0--0--0--0--0-----0--0--0-------------|
C|-0-----0--0--0--0--0--0-----0--0--0--------------0--0--0--0--0--0--0--0-----0--0--0-------------|




VERSE:
D|-x--x--x--x--x--x--x--x--x--x--x--x--x--5--x--5--x--x--x--x--x--x--x--x--x--x--x--x--x--5--x--5-|
G|-x--x--4--x--4--4--x--4--x--4--4--4--4--0--x--0--x--x--4--x--4--4--x--4--x--4--4--4--4--0--x--0-|
B|-0--0--0--0--0--0--0--0--0--0--0--0--0--0--0--0--0--0--0--0--0--0--0--0--0--0--0--0--0--0--0--0-|
E|-0--0--0--0--0--0--0--0--0--0--0--0--0--0--0--0--0--0--0--0--0--0--0--0--0--0--0--0--0--0--0--0-|
C|-4--4--4--4--4--4--4--4--4--4--4--4--4--4--4--4--4--4--4--4--4--4--4--4--4--4--4--4--4--4--4--4-|
C|-4--4--4--4--4--4--4--4--4--4--4--4--4--4--4--4--4--4--4--4--4--4--4--4--4--4--4--4--4--4--4--4-|
+
D|-------------------------------------7--5--------------------------------------------7--5-------|
G|-------------7--x--x--5-----5--5--5--------7--5--------------7--x--x--5-----5--5--5--------7--5-|
B|-------------7--x--x--5-----5--5--5--------------------------7--x--x--5-----5--5--5-------------|
E|-0-----0--0--0--0--0--0-----0--0--0--------------0--0--0--0--0--0--0--0-----0--0--0-------------|
C|-0-----0--0--0--0--0--0-----0--0--0--------------0--0--0--0--0--0--0--0-----0--0--0-------------|
C|-0-----0--0--0--0--0--0-----0--0--0--------------0--0--0--0--0--0--0--0-----0--0--0-------------|



CHORUS:
D|------------------------------------------------------------------------------------------------|
G|------------------------------------------------------------------------------------------------|
B|------------------------------------------------------------------------------------------------|
E|------------------------------------------------------------------------------------------------|
C|-11----11-11-11-11-11-11-11/12-12-12-12-12-12-12-11----11-11-11-11-11-11-11/12-12-12-12-12-12-12|
C|-11----11-11-11-11-11-11-11/12-12-12-12-12-12-12-11----11-11-11-11-11-11-11/12-12-12-12-12-12-12|
+
D|-------------------------------------7--5--------------------------------------------7--5-------|
G|-------------7--x--x--5-----5--5--5--------7--5--------------7--x--x--5-----5--5--5--------7--5-|
B|-------------7--x--x--5-----5--5--5--------------------------7--x--x--5-----5--5--5-------------|
E|-0-----0--0--0--0--0--0-----0--0--0--------------0--0--0--0--0--0--0--0-----0--0--0-------------|
C|-0-----0--0--0--0--0--0-----0--0--0--------------0--0--0--0--0--0--0--0-----0--0--0-------------|
C|-0-----0--0--0--0--0--0-----0--0--0--------------0--0--0--0--0--0--0--0-----0--0--0-------------|
+
D|-x--x--x--x--x--x--x--x--x--x--x--x--x--5--x--5--x--x--x--x--x--x--x--x--x--x--x--x--x--5--x--5-|
G|-x--x--4--x--4--4--x--4--x--4--4--4--4--0--x--0--x--x--4--x--4--4--x--4--x--4--4--4--4--0--x--0-|
B|-0--0--0--0--0--0--0--0--0--0--0--0--0--0--0--0--0--0--0--0--0--0--0--0--0--0--0--0--0--0--0--0-|
E|-0--0--0--0--0--0--0--0--0--0--0--0--0--0--0--0--0--0--0--0--0--0--0--0--0--0--0--0--0--0--0--0-|
C|-4--4--4--4--4--4--4--4--4--4--4--4--4--4--4--4--4--4--4--4--4--4--4--4--4--4--4--4--4--4--4--4-|
C|-4--4--4--4--4--4--4--4--4--4--4--4--4--4--4--4--4--4--4--4--4--4--4--4--4--4--4--4--4--4--4--4-|
+
D|-------------------------------------7--5--------------------------------------------7--5-------|
G|-------------7--x--x--5-----5--5--5--------7--5--------------7--x--x--5-----5--5--5--------7--5-|
B|-------------7--x--x--5-----5--5--5--------------------------7--x--x--5-----5--5--5-------------|
E|-0-----0--0--0--0--0--0-----0--0--0--------------0--0--0--0--0--0--0--0-----0--0--0-------------|
C|-0-----0--0--0--0--0--0-----0--0--0--------------0--0--0--0--0--0--0--0-----0--0--0-------------|
C|-0-----0--0--0--0--0--0-----0--0--0--------------0--0--0--0--0--0--0--0-----0--0--0-------------|
+
D|------------------------------------------------------------------------------------------------||
G|------------------------------------------------------------------------------------------------||
B|------------------------------------------------------------------------------------------------|| x 2
E|------------------------------------------------------------------------------------------------||
C|-11----11-11-11-11-11-11-11/12-12-12-12-12-12-12-11----11-11-11-11-11-11-11/12-12-12-12-12-12-12||
C|-11----11-11-11-11-11-11-11/12-12-12-12-12-12-12-11----11-11-11-11-11-11-11/12-12-12-12-12-12-12||



BRIDGE:
D|------------------------------------------------------------------------------------------------||
G|------------------------------------------------------------------------------------------------||
B|------------------------------------------------------------------------------------------------|| x 4
E|------------------------------------------------------------------------------------------------||
C|-9--9--9--9--9--9--9--9--10-10-10-10-10-9--9--9--13-13-13-13-13-13-13-13-13-13-13-13-13-13-13-13||
C|-9--9--9--9--9--9--9--9--9--9--9--9--9--9--9--9--0--0--0--0--0--0--0--0--12-12-12-12-12-12-12-12||
+
D|-x--x--x--x--x--x--x--x--x--x--x--x--x--x--x--x--x--x--x--x--x--x--x--x--x--x--x--x--x--x--x--x-||
G|-4--4--4--4--4--4--4--4--4--4--4--4--4--4--4--4--4--4--4--4--4--4--4--4--4--4--4--4--4--4--4--4-||
B|-0--0--0--0--0--0--0--0--0--0--0--0--0--0--0--0--0--0--0--0--0--0--0--0--0--0--0--0--0--0--0--0-|| x 2
E|-0--0--0--0--0--0--0--0--0--0--0--0--0--0--0--0--0--0--0--0--0--0--0--0--0--0--0--0--0--0--0--0-||
C|-4--4--4--4--4--4--4--4--4--4--4--4--4--4--4--4--4--4--4--4--4--4--4--4--4--4--4--4--4--4--4--4-||
C|-4--4--4--4--4--4--4--4--4--4--4--4--4--4--4--4--4--4--4--4--4--4--4--4--4--4--4--4--4--4--4--4-||
+
D|------------------------------------------------------------------------------------------------||
G|------------------------------------------------------------------------------------------------||
B|------------------------------------------------------------------------------------------------|| x 2
E|------------------------------------------------------------------------------------------------||
C|-4-\3--3--3--3--3--3--3--4-\3--3--3--3--3--3--3--4-\3--3--3--3--3--3--3--4-\3--3--3--3--3--3--3-||
C|-4-\3--3--3--3--3--3--3--4-\3--3--3--3--3--3--3--4-\3--3--3--3--3--3--3--4-\3--3--3--3--3--3--3-||
+
D|-0----------------------------------------------------------------------------------------------|
G|-0----------------------------------------------------------------------------------------------|
B|-0----------------------------------------------------------------------------------------------|
E|-0----------------------------------------------------------------------------------------------|
C|-0----------------------------------------------------------------------------------------------|
C|-0----------------------------------------------------------------------------------------------|



OUTRO:
D|------------------------------------------------------------------------------------------------|
G|------------------------------------------------------------------------------------------------|
B|------------------------------------------------------------------------------------------------|
E|-0--0--0--0--0--0--0--0--0--0--0--0--0--0--0--0--0--0--0--0--0--0--0--0--0--0--0--0--0--0--0--0-|
C|------------------------------------------------------------------------------------------------|
C|------------------------------------------------------------------------------------------------|
+
D|----------------------------------------5--x--5-----------------------------------------5--x--5-|
G|-x--x--9--x--x--9--x--9--x--x--9--x--x--0--x--0--x--x--9--x--x--9--x--9--x--x--9--x--x--0--x--0-|
B|-0--0--0--0--0--0--0--0--0--0--0--0--0--0--0--0--0--0--0--0--0--0--0--0--0--0--0--0--0--0--0--0-|
E|-0--0--0--0--0--0--0--0--0--0--0--0--0--0--0--0--0--0--0--0--0--0--0--0--0--0--0--0--0--0--0--0-|
C|------------------------------------------------------------------------------------------------|
C|------------------------------------------------------------------------------------------------|
+
D|------------------------------------------------------------------------------------------------|
G|-x--x--7--x--x--7--x--7--x--x--7--x--x--0--x--0--x--x--7--x--x--7--x--7--x--x--7--x--x--0--x--0-|
B|-x--x--7--x--x--7--x--7--x--x--7--x--x--0--x--0--x--x--7--x--x--7--x--7--x--x--7--x--x--0--x--0-|
E|-0--0--0--0--0--0--0--0--0--0--0--0--0--0--0--0--0--0--0--0--0--0--0--0--0--0--0--0--0--0--0--0-|
C|-0--0--0--0--0--0--0--0--0--0--0--0--0--0--0--0--0--0--0--0--0--0--0--0--0--0--0--0--0--0--0--0-|
C|-0--0--0--0--0--0--0--0--0--0--0--0--0--0--0--0--0--0--0--0--0--0--0--0--0--0--0--0--0--0--0--0-|
+
D|----------------------------------------5--x--5-----------------------------------------5--x--5-|
G|-x--x--9--x--x--9--x--9--x--x--9--x--x--0--x--0--x--x--9--x--x--9--x--9--x--x--9--x--x--0--x--0-|
B|-0--0--0--0--0--0--0--0--0--0--0--0--0--0--0--0--0--0--0--0--0--0--0--0--0--0--0--0--0--0--0--0-|
E|-0--0--0--0--0--0--0--0--0--0--0--0--0--0--0--0--0--0--0--0--0--0--0--0--0--0--0--0--0--0--0--0-|
C|------------------------------------------------------------------------------------------------|
C|------------------------------------------------------------------------------------------------|
+
D|------------------------------------------------------------------------------------------------|
G|-x--x--7--x--x--7--x--7--x--x--7--x--x--0--x--0--x--x--7--x--x--7--x--7--x--x--7--x--x--0--x--0-|
B|-x--x--7--x--x--7--x--7--x--x--7--x--x--0--x--0--x--x--7--x--x--7--x--7--x--x--7--x--x--0--x--0-|
E|-0--0--0--0--0--0--0--0--0--0--0--0--0--0--0--0--0--0--0--0--0--0--0--0--0--0--0--0--0--0--0--0-|
C|-0--0--0--0--0--0--0--0--0--0--0--0--0--0--0--0--0--0--0--0--0--0--0--0--0--0--0--0--0--0--0--0-|
C|-0--0--0--0--0--0--0--0--0--0--0--0--0--0--0--0--0--0--0--0--0--0--0--0--0--0--0--0--0--0--0--0-|
+
D|----------------------------------------5--x--5-----------------------------------------5--x--5-|
G|-x--x--9--x--x--9--x--9--x--x--9--x--x--0--x--0--x--x--9--x--x--9--x--9--x--x--9--x--x--0--x--0-|
B|-0--0--0--0--0--0--0--0--0--0--0--0--0--0--0--0--0--0--0--0--0--0--0--0--0--0--0--0--0--0--0--0-|
E|-0--0--0--0--0--0--0--0--0--0--0--0--0--0--0--0--0--0--0--0--0--0--0--0--0--0--0--0--0--0--0--0-|
C|------------------------------------------------------------------------------------------------|
C|------------------------------------------------------------------------------------------------|
+
D|------------------------------------------------------------------------------------------------|
G|-x--x--7--x--x--7--x--7--x--x--7--x--x--0--x--0--x--x--7--x--x--7--x--7--x--x--7--x--x--0--x--0-|
B|-x--x--7--x--x--7--x--7--x--x--7--x--x--0--x--0--x--x--7--x--x--7--x--7--x--x--7--x--x--0--x--0-|
E|-0--0--0--0--0--0--0--0--0--0--0--0--0--0--0--0--0--0--0--0--0--0--0--0--0--0--0--0--0--0--0--0-|
C|-0--0--0--0--0--0--0--0--0--0--0--0--0--0--0--0--0--0--0--0--0--0--0--0--0--0--0--0--0--0--0--0-|
C|-0--0--0--0--0--0--0--0--0--0--0--0--0--0--0--0--0--0--0--0--0--0--0--0--0--0--0--0--0--0--0--0-|
+
D|----------------------------------------5--x--5-----------------------------------------5--x--5-|
G|-x--x--9--x--x--9--x--9--x--x--9--x--x--0--x--0--x--x--9--x--x--9--x--9--x--x--9--x--x--0--x--0-|
B|-0--0--0--0--0--0--0--0--0--0--0--0--0--0--0--0--0--0--0--0--0--0--0--0--0--0--0--0--0--0--0--0-|
E|-0--0--0--0--0--0--0--0--0--0--0--0--0--0--0--0--0--0--0--0--0--0--0--0--0--0--0--0--0--0--0--0-|
C|------------------------------------------------------------------------------------------------|
C|------------------------------------------------------------------------------------------------|
+
D|------------------------------------------------------------------------------------------------|
G|-x--x--7--x--x--7--x--7--x--x--7--x--x--0--x--0--x--x--7--x--x--7--x--7--x--x--7--x--x--0--x--0-|
B|-x--x--7--x--x--7--x--7--x--x--7--x--x--0--x--0--x--x--7--x--x--7--x--7--x--x--7--x--x--0--x--0-|
E|-0--0--0--0--0--0--0--0--0--0--0--0--0--0--0--0--0--0--0--0--0--0--0--0--0--0--0--0--0--0--0--0-|
C|-0--0--0--0--0--0--0--0--0--0--0--0--0--0--0--0--0--0--0--0--0--0--0--0--0--0--0--0--0--0--0--0-|
C|-0--0--0--0--0--0--0--0--0--0--0--0--0--0--0--0--0--0--0--0--0--0--0--0--0--0--0--0--0--0--0--0-|
+
D|----------------------------------------5--x--5-----------------------------------------5--x--5-|
G|-x--x--9--x--x--9--x--9--x--x--9--x--x--0--x--0--x--x--9--x--x--9--x--9--x--x--9--x--x--0--x--0-|
B|-0--0--0--0--0--0--0--0--0--0--0--0--0--0--0--0--0--0--0--0--0--0--0--0--0--0--0--0--0--0--0--0-|
E|-0--0--0--0--0--0--0--0--0--0--0--0--0--0--0--0--0--0--0--0--0--0--0--0--0--0--0--0--0--0--0--0-|
C|------------------------------------------------------------------------------------------------|
C|------------------------------------------------------------------------------------------------|
+
D|------------------------------------------------------------------------------------------------|
G|-x--x--7--x--x--7--x--7--x--x--7--x--x--0--x--0--x--x--7--x--x--7--x--7--x--x--7--x--x--0--x--0-|
B|-x--x--7--x--x--7--x--7--x--x--7--x--x--0--x--0--x--x--7--x--x--7--x--7--x--x--7--x--x--0--x--0-|
E|-0--0--0--0--0--0--0--0--0--0--0--0--0--0--0--0--0--0--0--0--0--0--0--0--0--0--0--0--0--0--0--0-|
C|-0--0--0--0--0--0--0--0--0--0--0--0--0--0--0--0--0--0--0--0--0--0--0--0--0--0--0--0--0--0--0--0-|
C|-0--0--0--0--0--0--0--0--0--0--0--0--0--0--0--0--0--0--0--0--0--0--0--0--0--0--0--0--0--0--0--0-|
+
D|-0----------------------------------------------------------------------------------------------|
G|-0----------------------------------------------------------------------------------------------|
B|-0----------------------------------------------------------------------------------------------|
E|-0----------------------------------------------------------------------------------------------|
C|-0----------------------------------------------------------------------------------------------|
C|-0----------------------------------------------------------------------------------------------|
+
D|-7--7--7--5-----5--5--5--0--0--0--0-----0--0--0--0--0--0--0-----0--0--0--0--0--0--0-----0--0--0-|
G|-0--0--0--0-----0--0--0--7--7--7--5-----5--5--5--0--0--0--0-----0--0--0--0--0--0--0-----0--0--0-|
B|-0--0--0--0-----0--0--0--0--0--0--0-----0--0--0--7--7--7--5-----5--5--5--5--5--5--5-----5--5--5-|
E|-0--0--0--0-----0--0--0--0--0--0--0-----0--0--0--0--0--0--0-----0--0--0--0--0--0--0-----0--0--0-|
C|-0--0--0--0-----0--0--0--0--0--0--0-----0--0--0--0--0--0--0-----0--0--0--0--0--0--0-----0--0--0-|
C|-0--0--0--0-----0--0--0--0--0--0--0-----0--0--0--0--0--0--0-----0--0--0--0--0--0--0-----0--0--0-|
+
D|-0--0--0--0-----0--0--0--7--7--7--5-----5--5--5--0--0--0--0-----0--0--0--0--0--0--0-----0--0--0-|
G|-0--0--0--0-----0--0--0--0--0--0--0-----0--0--0--7--7--7--5-----5--5--5--0--0--0--0-----0--0--0-|
B|-5--5--5--5-----5--5--5--0--0--0--0-----0--0--0--0--0--0--0-----0--0--0--7--7--7--5-----5--5--5-|
E|-0--0--0--0-----0--0--0--0--0--0--0-----0--0--0--0--0--0--0-----0--0--0--0--0--0--0-----0--0--0-|
C|-0--0--0--0-----0--0--0--0--0--0--0-----0--0--0--0--0--0--0-----0--0--0--0--0--0--0-----0--0--0-|
C|-0--0--0--0-----0--0--0--0--0--0--0-----0--0--0--0--0--0--0-----0--0--0--0--0--0--0-----0--0--0-|
+
D|-0--0--0--0-----0--0--0--0--0--0--0-----0--0--0--7--7--7--5-----5--5--5--0--0--0--0-----0--0--0-|
G|-0--0--0--0-----0--0--0--0--0--0--0-----0--0--0--0--0--0--0-----0--0--0--7--7--7--5-----5--5--5-|
B|-5--5--5--5-----5--5--5--5--5--5--5-----5--5--5--0--0--0--0-----0--0--0--0--0--0--0-----0--0--0-|
E|-0--0--0--0-----0--0--0--0--0--0--0-----0--0--0--0--0--0--0-----0--0--0--0--0--0--0-----0--0--0-|
C|-0--0--0--0-----0--0--0--0--0--0--0-----0--0--0--0--0--0--0-----0--0--0--0--0--0--0-----0--0--0-|
C|-0--0--0--0-----0--0--0--0--0--0--0-----0--0--0--0--0--0--0-----0--0--0--0--0--0--0-----0--0--0-|
+
D|-0--0--0--0-------------------------------------------------------------------------------------|
G|-0--0--0--0-------------------------------------------------------------------------------------|
B|-7--7--7--5-------------------------------------------------------------------------------------|
E|-0--0--0--0-------------------------------------------------------------------------------------|
C|-0--0--0--0-------------------------------------------------------------------------------------|
C|-0--0--0--0-------------------------------------------------------------------------------------|



SONG STRUCTURE:
INTRO x 1
VERSE x 8
CHORUS x 1
BRIDGE
OUTRO



Lee's part TBA



That's it.  Please leave any comments, questions, or requests.  Cheers!
-Bennyshambles78-


Suggest correction
Creating personal tab
Creating personal tab
You can edit any tab online and save it as your Personal.

You can edit, replace or remove any tab part or add personal notes – all changes will be seen only by you.

Personal tabs can be accessed anytime from any device, even offline.
Learn more »
Give kudos to tab author, rate the tab!
1 2 3 4 5
comments
print report bad tab
1 comment total.
0 reply
davidcorbet 10 Jun 21, 2017 09:25 PM

do you have lee's part as well?

guest
You may want to rate the tab now too:
select rating
Wanna post a correction for this tab? Suggest correction