Oops, an error
Loading. Please wait.

Do You Believe In Rapture Tab

2,011 views 3 this week
no commentswrite comment
1 2 3 4 5
3 more votes to show rating
add to favorites
launch autoscroll
font size
0
reset
how to read this tab
guitar tuner
Autoscroll
slow
fast
+/-
esc
set tempo
stop
Author
Difficulty
novice
DO YOU BELIEVE IN RAPTURE?

For the best tuning effect, try to use different guaged strings to accomodate the tuning. 

Basically the whole song is just harmonics so have fun :D

Guitar 1=DD#A#D#GG   (Thurston, right)
Guitar 2=D#D#A#D#GG  (Lee, left)



1ST VERSE: repeat x10
   Gtr 1
G |<7>-----------------------------|<5>-----------------------------|
G |<7>-----------------------------|<5>-----------------------------|
D#|<7>-----------------------------|<5>-----------------------------|
A#|<7>-----------------------------|<5>-----------------------------|
D#|<7>-----------------------------|<5>-----------------------------|
D |<7>-----------------------------|<5>-----------------------------|
  |
  |Gtr 2
G |<7>-----------------------------|<12>----------------------------|
G |<7>-----------------------------|<12>----------------------------|
D#|<7>-----------------------------|<12>----------------------------|
A#|<7>-----------------------------|<12>----------------------------|
D#|<7>-----------------------------|<12>----------------------------|
D#|<7>-----------------------------|<12>----------------------------|





BRIDGE: repeat x2
   Gtr 1
G |<9>-----------------------------|<5>-----------------------------|
G |<9>-----------------------------|<5>-----------------------------|
D#|<9>-----------------------------|<5>-----------------------------|
A#|<9>-----------------------------|<5>-----------------------------|
D#|<9>-----------------------------|<5>-----------------------------|
D |<9>-----------------------------|<5>-----------------------------|
  |
  |Gtr 2
G |<9>-----------------------------|<5>-----------------------------|
G |<9>-----------------------------|<5>-----------------------------|
D#|<9>-----------------------------|<5>-----------------------------|
A#|<9>-----------------------------|<5>-----------------------------|
D#|<9>-----------------------------|<5>-----------------------------|
D#|<9>-----------------------------|<5>-----------------------------|





2ND VERSE: repeat x10
   Gtr 1
G |<7>-----------------------------|<5>-----------------------------|
G |<7>-----------------------------|<5>-----------------------------|
D#|<7>-----------------------------|<5>-----------------------------|
A#|<7>-----------------------------|<5>-----------------------------|
D#|<7>-----------------------------|<5>-----------------------------|
D |<7>-----------------------------|<5>-----------------------------|
  |
  |Gtr 2 (w/ lots of effects and ad-libbing)
G |--------------------------------|--------------------------------|
G |<7>-0---<7>-0---<7>-0---<7>-0---|<7>-0---<7>-0---<7>-0---<7>-0---|
D#|<7>-0---<7>-0---<7>-0---<7>-0---|<7>-0---<7>-0---<7>-0---<7>-0---|
A#|<7>-0---<7>-0---<7>-0---<7>-0---|<7>-0---<7>-0---<7>-0---<7>-0---|
D#|<7>-0---<7>-0---<7>-0---<7>-0---|<7>-0---<7>-0---<7>-0---<7>-0---|
D#|--------------------------------|--------------------------------|





BRIDGE: repeat x2

SOLO BREAK
   Gtr 1
G |--------------------------------|--------------------------------|
G |----------------<7>-------------|----------------<5>-------------|
D#|--------<7>---------<7>---------|--------<5>---------<5>---------|
A#|----<7>-----<7>---------<7>-----|----<5>-----<5>---------<5>-----|
D#|<7>-------------------------<7>-|<5>-------------------------<5>-|
D |--------------------------------|--------------------------------|
  |
  |Gtr 2
G |--------------------------------|--------------------------------|
G |--------------------------------|--------12------12--13--12------|
D#|--------7---7-----------7---7/--|12--12--12--12--12--12--12--12\-|
A#|----7---7---7---7---7---7---7/--|12--12--12--12--12--12--12--12\-|
D#|7---7---7---7---7---7---7---7/--|12--12--12--12--12--12--12--12\-|
D#|7---7---7---7---7---7---7---7/--|12--12--12--12--12--12--12--12\-|


   Gtr 1
G |--------------------------------|--------------------------------|
G |----------------<7>-------------|----------------<5>-------------|
D#|--------<7>---------<7>---------|--------<5>---------<5>---------|
A#|----<7>-----<7>---------<7>-----|----<5>-----<5>---------<5>-----|
D#|<7>-------------------------<7>-|<5>-------------------------<5>-|
D |--------------------------------|--------------------------------|
  |
  |Gtr 2
G |--------------------------------|--------------------------------|
G |------------7---8---7-----------|--------12--121213--12--12------|
D#|--------7---7---7---7-------7/--|12--12--12--121212--12--12--12\-|
A#|7---7---7---7---7---7-------7/--|12--12--12--121212--12--12--12\-|
D#|7---7---7---7---7---7-------7/--|12--12--12--121212--12--12--12\-|
D#|7---7---7---7---7---7-------7/--|12--12--12--121212--12--12--12\-|


   Gtr 1
G |--------------------------------|--------------------------------|
G |----------------<7>-------------|----------------<5>-------------|
D#|--------<7>---------<7>---------|--------<5>---------<5>---------|
A#|----<7>-----<7>---------<7>-----|----<5>-----<5>---------<5>-----|
D#|<7>-------------------------<7>-|<5>-------------------------<5>-|
D |--------------------------------|--------------------------------|
  |
  |Gtr 2
G |--------------------------------|--------------------------------|
G |----------------7---7---7---7/--|----------------12--12--12------|
D#|7---7---7---7---7---7---7---7/--|12--12--12--12--12--12--12--12\-|
A#|7---7---7---7---7---7---7---7/--|12--12--12--12--12--12--12--12\-|
D#|7---7---7---7---7---7---7---7/--|12--12--12--12--12--12--12--12\-|
D#|7---7---7---7---7---7---7---7/--|12--12--12--12--12--12--12--12\-|


   Gtr 1
G |--------------------------------|--------------------------------|
G |----------------<7>-------------|----------------<5>-------------|
D#|--------<7>---------<7>---------|--------<5>---------<5>---------|
A#|----<7>-----<7>---------<7>-----|----<5>-----<5>---------<5>-----|
D#|<7>-------------------------<7>-|<5>-------------------------<5>-|
D |--------------------------------|--------------------------------|
  |
  |Gtr 2
G |------------7---7---7---7---7/--|12--12--12--12--12--12--12------|
G |----7---7---7---7---7---7---7/--|12--12--12--12--12--12--12------|
D#|7---7---7---7---7---7---7---7/--|12--12--12--12--12--12--12------|
A#|7---7---7---7---7---7---7---7/--|12--12--12--12--12--12--12------|
D#|7---7---7---7---7---7---7---7/--|12--12--12--12--12--12--12------|
D#|7---7---7---7---7---7---7---7/--|12--12--12--12--12--12--12------|





BRIDGE: repeat x2

3RD VERSE: repeat x8
   Gtr 1
G |<7>-----------------------------|<5>-----------------------------|
G |<7>-----------------------------|<5>-----------------------------|
D#|<7>-----------------------------|<5>-----------------------------|
A#|<7>-----------------------------|<5>-----------------------------|
D#|<7>-----------------------------|<5>-----------------------------|
D |<7>-----------------------------|<5>-----------------------------|
  |
  |Gtr 2
G |<7>-----------------------------|<12>----------------------------|
G |<7>-----------------------------|<12>----------------------------|
D#|<7>-----------------------------|<12>----------------------------|
A#|<7>-----------------------------|<12>----------------------------|
D#|<7>-----------------------------|<12>----------------------------|
D#|<7>-----------------------------|<12>----------------------------|





BRIDGE: repeat x2

ENDING
   Gtr 1
G |(<5>)---------------------------|
G |(<5>)---------------------------|
D#|(<5>)---------------------------|
A#|(<5>)---------------------------|
D#|(<5>)---------------------------|
D |(<5>)---------------------------|
  |
  |Gtr 2
G |(<5>)---------------------------|
G |(<5>)---------------------------|
D#|(<5>)---------------------------|
A#|(<5>)---------------------------|
D#|(<5>)---------------------------|
D#|(<5>)---------------------------|
Suggest correction
Give kudos to tab author, rate the tab!
1 2 3 4 5
comments
print report bad tab
guest
You may want to rate the tab now too:
select rating
Wanna post a correction for this tab? Suggest correction