Oops, an error
Loading. Please wait.

Erics Trip Tab

3,749 views 6 this week
no commentswrite comment
1 2 3 4 5
2 more votes to show rating
add to favorites
launch autoscroll
font size
0
reset
how to read this tab
guitar tuner
Autoscroll
slow
fast
+/-
esc
set tempo
stop
Help us to improve Ultimate-Guitar.com Take our survey!
×
tUnInG bOtH gUiTaRs: EBEEAB

I think Lee plays in the right speaker & Thurston in the left speaker!?!

lR:

verse-riff: no strumming shown	2nd riff:	    chorus?-riff:
B|------------------------------|----------------|-----------------------|
A|--9--7--9---9--7--9-----------|----------------|-----------------------|
E|--7--5--7---7--5--7-----------|-7--5--7--5-----|-10--12--10--12--------|
E|--7--5--7---7--5--7-etc...----|-7--5--7--5-----|-10--12--10--12--------|
B|--7--5--7---7--5--7-----------|-7--5--7--5-x2--|-10--12--10--12--------|etc...
E|-(7)--------------------------|-7--5--7--5-----|-10-- 0--10-- 0--------|

bridge:	     "this is eric's trip..."	bridge to next verse:
B|---------------|-0--0--0--0-----------------|-(0)-|
A|---------------|-7--9--7--9-----------------|--9--|
E|-7-7-7---------|-7--9--7--9-etc...----------|--7--|
E|-7-7-7-etc...--|-7--9--7--9-----------------|--0--|
B|-0-0-0---------|-0--0--0--0-----------------|-(0)-|
E|---------------|----------------------------|-----|
							 (strum this chord)
tM:

intro: pick scrapes

verse-riff:			    2nd riff:
B|----------------------------|-------------------------------------|
A|----------------------------|-2--0--------------2--0--------------|
E|-7--0-2--7--12--b14-repeat--|-2--0-make noise!--2--0--------------|make noise!
E|-7--0-2--7--12--b14-this----|-2--0--------------2--0--------------| x2
B|----------------------------|-------------------------------------|
E|----------------------------|-------------------------------------|

chorus?-riff:					   bridge:		"this is eric's trip..."
B|---------------------------------------|----------------|-----------|
A|---------------------------------------|----------------|-----------|
E|---------------------------------------|--7-7-7---------|-make lots-|
E|--7bend & release all the way through--|--7-7-7-etc...--|-& lot of--|
B|---------------------------------------|----------------|-NOISE!!!--|
E|---------------------------------------|----------------|-----------|

"can you dig it?..."   bridge to next verse:
B|--------------------|-7*---------------7*-7*------|
A|--7--9--7--9--------|--7*----7*--7*--7*----7*-----|
E|--7--9--7--9--------|---7*-7*--7*--7*-------7*----|
E|--7--9--7--9--------|----7*------------------7----|repeat this -> next verse:...
B|--------------------|-----------------------------|
E|--------------------|-----------------------------|

I think this should be quite accurate! I'm a bit unsure who's playing what though...
Suggest correction
Give kudos to tab author, rate the tab!
1 2 3 4 5
comments
print report bad tab
guest
You may want to rate the tab now too:
select rating
Wanna post a correction for this tab? Suggest correction