Oops, an error
Loading. Please wait.

Expressway To Your Skull Tab

version 1
version 1

Acoustic

Whole song

1,098 views 3 this week
no commentswrite comment
1 2 3 4 5
please rate
add to favorites
launch autoscroll
font size
0
reset
how to read this tab
guitar tuner
Tab Pro tools
  • play this tab
  • loop segment
  • change instrument
  • show fretboard
  • metronome
×
Best way to learn
"Expressway To Your Skull"
Autoscroll
slow
fast
+/-
esc
set tempo
stop
Contributor
I couldn't help but learn to play this song on normal tuning.
If i completely destroy it, please forgive me. It was done with good intentions.
Note: I never labled how many times to strum the chords in this song.
The reason being that I tend to strum different chords different amounts of times every 
i play it.
I also didn't tab most of the ending as I couldn't figure out how to tab awesome noise
at the end onto acoustic guitar.
(Standard Tuning: EADGBE)


Intro:

e-0-------------------------------------------------------------------------|
b-0-------------------------------------------------------------------------|
g-4-------------------------------------------------------------------------|
d-4-------------------------------------------------------------------------|
a-2-------------------------------------------------------------------------|
e---------------------------------------------------------------------------|
  Just play this over and over at the very begining of the song (0:00-0:07)

e-0---0---0---0---0---------0------0-----------------------------------------|
b-0---0---0---0---0---------0------0-----------------------------------------|
g-2---1---2---1---2--x?-----1------2-----------------------------------------|
d-2---2---2---2---2---------1------2-----------------------------------------|
a-2---2---2---2---0---------1------2-----------------------------------------|
e-0---0---0---0-------------0------0-----------------------------------------|
 (0:007--------0:018)     (0:19-0:024----------------------------------------|

e-0-----------0--0--0--0--0--0--0--0--0---0----------0----0--0--0------------|
b-0-----------0--0--0--0--0--0--0--0--0---0----------0----0--0--0------------|
g-2-----------1--2--1--2--2--1--2--1--2---2----------1----2--1--2------------|
d-2-----------2--2--2--2--2--2--2--2--2---2----------2----2--2--2------------|
a-2-----------2--2--2--0--2--2--2--2--0---2----------2----2--2--0------------|
e-0-----------0--0--0-----0--0--0--0------0----------0----0--0---------------|
  We're gonna Killlllllll              the california girls

e-0------------------------------------------0--------0-------0---0--0-------|
b-0------------------------------------------0--------0-------0---0--0-------|
g-1------------------------------------------2--------1-------2---1--2-------|
d-1------------------------------------------2--------2-------2---2--2-------|
a-1------------------------------------------2--------2-------2---2--0-------|
e-0------------------------------------------0--------0-------0---0----------|
  We're gonna fire the exploding load in the milk maid maiden head

e-0-----------0--------0--0--0--0--0--0--0--0--0--------0---0--0--0----------|
b-0-----------0--------0--0--0--0--0--0--0--0--0--------0---0--0--0----------|
g-2-----------1--------2--1--2--2--1--2--1--2--2--------1---2--1--2----------|
d-2-----------2--------2--2--2--2--2--2--2--2--2--------2---2--2--2----------|
a-2-----------2--------2--2--0--2--2--2--2--0--2--------2---2--2--0----------|
e-0-----------0--------0--0-----0--0--0--0-----0--------0---0--0-------------|
  We're gonna find the meaningggggg         of feeling  good

e-0---------------------------------0---------------------------------------|
b-0---------------------------------0-do-untill--chorus---------------------|
g-1---------------------------------2---------------------------------------|
d-1---------------------------------2---------------------------------------|
a-1---------------------------------2---------------------------------------|
e-0---------------------------------0---------------------------------------|
  And we're gonna stay there for as long as we think that we should

e--3-----------------------------------------1--------------0--0--0--0--0----|
b--3-----------------------------------------1--------------0--0--0--0--0----|
g--4-----------------------------------------2--------------2--1--2--1--2----|
d--5-----------------------------------------3--------------2--2--2--2--2----|
a--5-----------------------------------------3--------------2--2--2--2--0----|
e--3-----------------------------------------1--------------0--0--0--0-------|
  Mystery train three way plain expresswayyyyyyyyyyyy to yr skullllll

e-0--0--0--0--0--------------------------------------------------------------|
b-0--0--0--0--0--------------------------------------------------------------|
g-2--1--2--1--2--------------------------------------------------------------|
d-2--2--2--2--2--------------------------------------------------------------|
a-2--2--2--2--0--------------------------------------------------------------|
e-0--0--0--0-----------------------------------------------------------------|

Then ending is anyone's guess. If someone figures it out and wants to email it to me, my
is jimnazum@hotmail.com
comments
We did not receive enough feedback on this tab! Please rate:
print report bad tab
1 2 3 4 5
I want to post or [tab]
guest
You may want to rate the tab now too:
select rating
Please do not post tabs as comments. Select "correction" instead!