Oops, an error
Loading. Please wait.

Incinerate tab

version 2
version 2

Whole song

Interactive

21,469 views 9 this week
1 commentread comment
1 2 3 4 5
x 9
add to favorites
×
Save as Personal and add changes to this tab that will be seen only by you. Learn more ›
×
You can save this tab as Personal to edit and correct it or add notes. All changes will be seen only by you. Learn more »
launch autoscroll
font size
0
reset
how to read this tab
guitar tuner
backing track
0:00
0:00
edit
Autoscroll
slow
fast
+/-
esc
set tempo
stop
Author
Incinerate tabbed by boris dueñas
----

*0:00 INTRO (1st part)

L				R
  
|---------------------|		|--------------------|
|---------------------|		|-0--0--0-----0--0--0|
|-0--0--0-----0--0--0-|		|-0--0--0-----0--0--0|
|-1--1--1-----1--1--1-|		|-5--5--5-----5--5--5|
|-1--1--1-----1--1--1-|		|-0--0--0-----0--0--0|
|-1--1--1-----1--1--1-|		|-0--0--0-----0--0--0|

----
*0:07 INTRO (2nd part)
L
|---------------------------------------------|
|---------------------------------------------|
|---------------------------------------------|
|-----1-----------1------------1-----------1--|
|-1-------1---1------------1-------1---1------|	
|--------------------0------------------------|	

R
|--------------------|	
|--------------------|	
|--------------------|	
|----1---------1-----| x2
|-1-----1-1-1-----1--|
|--------------------|

----
*0:10 INTRO (3rd part)

L
|-----------------------------------------|
|-----------------------------------------|
|----12---10---12---15-15---12---10---12--|
|-----------------------------------------|
|-----------------------------------------|
|-----------------------------------------|

R
|---------------------------------|
|-8...--6--8--11-11--8-8--6-6--8--|
|-0...--0--0---0--0--0-0--0-0--0--|
|---------------------------------|
|---------------------------------|
|---------------------------------|

----
*0:16 INTRO (4th part)

L
|----------------------|
|----------------------|
|-5---7-7---8-8---7-7--|
|----------------------|
|----------------------|
|----------------------|

R (1st time)
|----------------------|   
|-1---3-3---4-4---3-3--|
|-0---0-0---0-0---0-0--| 
|----------------------|
|----------------------|
|----------------------|

(2nd time)
|----------------------|
|-1---3-3---4-4---6-6--|
|-0---0-0---0-0---0-0--|
|----------------------|
|----------------------|
|----------------------|

-----------
*0:29 Verse

L
|---------------------------|
|---------------------------|
|---5------7-------------7--|
|--5------5------5------5---|x4
|-6------5------0------5----|
|---------------------------|

R
|----------------------------------------------------------|
|----------------------------------------------------------|
|--0---0------------7------------------0-----------7-------|
|-10--10---5--5---5----5--5-------1--3---1-------5---5--5--|x4
|-------------------------------3----------3---------------|
|----------------------------------------------------------|


------
*0:54 "incinerate"

L
|----------------------------------|
|----------------------------------|
|-0---3---5---7---5---3-5---3-0----|
|----------------------------------|
|-------------------------------3--|
|----------------------------------|


R
|----------------------------------------|
|----------------------------------------|
|-0---0----0----0----0-----0--0---0-0----|
|-----8---10---12---10-----8-10---8------|
|----------------------------------------|
|--------------------------------------8-|


----
*1:07 "firefighters...."

L
|-----------------------|---------------------|
|-----------------------|-8-7-8-7-8-7--5------|
|-5------5--------5---7-|----------------8--5-|
|-6----6---6----------8-|-------------------6-|
|-6--6-------6--6-----8-|-------------------6-|
|-----------------------|---------------------|


|-----------------------|-------------------------|
|-----------------------|-------------------------|
|-5------5--------5---7-|-------------------------|
|-6----6---6----------8-|------7--7---------------|
|-6--6-------6--6-----8-|-7--9-------7--9--7------|
|-----------------------|--------------------9--4-|


|-----------------------|---------------------|
|-----------------------|-8-7-8-7-8-7--5------|
|-5------5--------5---7-|----------------8--5-|
|-6----6---6----------8-|-------------------6-|
|-6--6-------6--6-----8-|-------------------6-|
|-----------------------|---------------------|


|-----------------------|------------|
|-----------------------|------------|
|-5------5--------5---7-|-7-7-7-7...-|
|-6----6---6----------8-|-8-8-8-8...-|
|-6--6-------6--6-----8-|-8-8-8-8...-|
|-----------------------|------------|


R
|-------------------------------------------|
|-------------------------------------------|
|-5-5-5-5-5-5-...---------------------------|
|-6-6-6-6-6-6-...---------------------------| x3
|-6-6-6-6-6-6-...--8/10-10-10-10-10-8-6-----|
|---------------------------------------8-4-|

|-------------------------|
|-------------------------|
|-5-5-5-5-5-5...----------|
|-6-6-6-6-6-6...----------|
|-6-6-6-6-6-6...--5-5-5-5-|
|-----------------6-6-6-6-|


----
*1:32 = INTRO (3 & 4 part) Ly R
----

*1:50 Verse 2 	

L (w chorus) (x 2)

|---------------------------|------------------------|
|---------------------------|------------------------|
|-----5-----------7---------|-8---------------7------|
|---6---6-------8---8-------|------10-----------8----|
|-6-------6---8-------8-----|-----------10--------8--|
|---------------------------|------------------------|

|---------------------------|-------------------------|
|---------------------------|-------------------------|
|-----5-----------7---------|--8---8---8---8---8----7-|
|---6---6-------8---8-------|-10--10--10--10--10----8-|
|-6-------6---8-------8-----|-10--10--10--10--10----8-|
|---------------------------|-------------------------|


R = verse (0:29)

---------
*2:15 "incinerate..." (=0:29) L y R
----------


*2:28 "firefighters are so nice..."

L (distorsion)

|-----------------------------------------------------------------
|-----------------------------------------------------------------
|----5--7--8--10--12-----12-13-12-9--8-10-8-7-5-----5-5-5-5/7/8---
|-----------------------------------------------------------------
|-6---------------------------------------------------------------
|-4---------------------------------------------------------------


---------------------------------------------------------|
-7-5/7-5/7-3/5-3/5---------------------------------------|
---------------------------------------------------------|
------------------------3/5/7-----3/5---8--6--5--3--1----|
---------------------6---------------------------------1-|
---------------------4--------4--------------------------|


R (= 1:07)

-----

*2:53 INTRO ( 1st part) (=0:00) L y R
-----

*3:00

L
|----------------------------------------------------|
|----------------------------------------------------|
|-8--8--12--15--14--12--8------8--8--12--15--14--12--|
|----------------------------------------------------|
|----------------------------------------------------|
|----------------------------------------------------|


R
|----------------------------------------------|
|----------------------------------------------|
|----------------------------------------------|
|---8--10--12--10--8--------8--10--12--10--13--|
|-6-----------------------6--------------------|
|----------------------------------------------|


------
*3:05

L
|-----------------------------------------------------------
|-----------------------------------------------------------
|-----------------------------------------------------------
|-8-8-8-8-8-8...10-10-10-10...13-13-13-13....15-15-15-15....
|-----------------------------------------------------------
|-----------------------------------------------------------

-----------------------------------------------------------------|
---------------------------------------------20-20-20-20......20-|
-------------------------------20-20-20-20...--------------------|
-17-17-17-17-....20-20-20-20...----------------------------------|
-----------------------------------------------------------------|
-----------------------------------------------------------------|


R
               x2                    x2
|---------------------------||-----------------------||
|---------------------------||-----------------------||
|----3--5------3--5---------||----5--7------5--7-----||
|-5---------5--------5------||-5---------5---------5-||
|---------------------------||-----------------------||
|---------------------------||-----------------------||


|----------------------------------|
|----------------------------------|
|----------------------------------|
|-13-13-13-13....15-15-15-15....15-|
|----------------------------------|
|----------------------------------|

             x2                        x2
|---------------------------||------------------------||
|----11--13----11--13-------||----13--15----13--15----||
|-12--------12--------12----||-12--------12--------12-||
|---------------------------||------------------------||
|---------------------------||------------------------||
|---------------------------||------------------------||


|---------------------------------|
|-16-16-16-16.....19-19-19-19..19-|
|---------------------------------|
|---------------------------------|
|---------------------------------|
|---------------------------------|


------

INTRO (=) (1st, 2nd, 3rd, 4th)
------
Verse 2
------
"incinerate". (8 times)....xxxxx. END

lima-peru












            
            
Suggest correction
Creating personal tab
Creating personal tab
You can edit any tab online and save it as your Personal.

You can edit, replace or remove any tab part or add personal notes – all changes will be seen only by you.

Personal tabs can be accessed anytime from any device, even offline.
Learn more »
comments
print report bad tab
1 comment total.
+1 reply
RedDevil07 177 Jan 25, 2009 06:22 AM

really good tab but i think one small correction is needed.

|-----------------------|---------------------|
|-----------------------|-8-7-8-7-8-7--5------|
|-5------5--------5---7-|----------------8--5-|
|-6----6---6----------8-|-------------------6-|
|-6--6-------6--6-----8-|-------------------6-|
|-----------------------|---------------------|

should be:
|-----------------------|---------------------|
|-----------------------|---------------------|
|-5------5--------5---7-|-8-7-8-7-8-7--5-8--5-|
|-6----6---6----------8-|-------------------6-|
|-6--6-------6--6-----8-|-------------------6-|
|-----------------------|---------------------|

guest
You may want to rate the tab now too:
select rating
Wanna post a correction for this tab? Suggest correction