Oops, an error
Loading. Please wait.

Kool Thing bass

version 1
version 1

Whole song

Interactive

13,697 views 24 this week
1 commentread comment
1 2 3 4 5
x 4
add to favorites
×
Save as Personal and add changes to this tab that will be seen only by you. Learn more ›
×
You can save this tab as Personal to edit and correct it or add notes. All changes will be seen only by you. Learn more »
launch autoscroll
font size
0
reset
guitar tuner
backing track
0:00
0:00
edit
Autoscroll
slow
fast
+/-
esc
set tempo
stop
Author
-------------------------------------------------------------------------------
			     KOOL THING - Sonic Youth
-------------------------------------------------------------------------------

Tabbed By : Gustavo
e-mail: ltavo_87@hotmail.com

Tuning:EADG

Intro
G--------------------|
D--------------------|
A--9-9-9-9-9-9-9-9-9-|
E--------------------|

G----------------------------------|
D------------(11)/9-9-9-9-10101010-|X4
A--9-9-9-9-9-----------------------|
E----------------------------------|

G-------------|
D-------------|X4
A-------------|
E—(0)/2-2/(9)-|
(slide slowly to fret 9)

Verse 1
(Kool thing sitting with a kiddie…)
G----------------------------------|
D------------(11)/9-9-9-9-10101010-|X4
A--9-9-9-9-9-----------------------|
E----------------------------------|

Chorus 1
(I don’t wanna…)
G-------------|
D-------------|X4
A-------------|
E—(0)/2-2/(9)-|

Verse 2
(Kool thing playing with the radio…)
G----------------------------------|
D------------(11)/9-9-9-9-10101010-|X4
A--9-9-9-9-9-----------------------|
E----------------------------------|

Chorus 2
(I don’t wanna…)
G-------------|
D-------------|X4
A-------------|
E—(0)/2-2/(9)-|


Interlude(Repeat each part as many times as needed)
Part 1
G-------------------------------------|
D-------------------------------------|
A-------------12-14-15-15-15-15-15/16-|
E-14-14-14-14-------------------------|

Part 2
G--------------------------------------|
D--------------------------------------|
A-------------17--17-17-17-17-17-17-17-|
E-(0)\2-2-2-2--------------------------|

Part 3
G-------------------------------------|
D-------------------------------------|
A-------------16/17-17-17-17-17-17-17-|
E-14-14-14-14-------------------------|

Part 4
G--------------------------------------|
D--------------------------------------|
A-------------17--17-17-17-17-17-17-17-|
E-(0)\2-2-2-2--------------------------|

Verse 3
(Kool thing sitting with a kiddie…)
G----------------------------------|
D------------(11)/9-9-9-9-10101010-|X4
A--9-9-9-9-9-----------------------|
E----------------------------------|

Chorus 3
(I don’t wanna…)
G-------------|
D-------------|X4
A-------------|
E—(0)/2-2/(9)-|

Verse 4
(Kool thing…)
G----------------------------------|
D------------(11)/9-9-9-9-10101010-|X4
A--9-9-9-9-9-----------------------|
E----------------------------------|

Chorus 3/Outro
(I don’t wanna…)
G-------------|
D-------------|X4
A-------------|
E—(0)/2-2/(9)-|

            
            
Suggest correction
Creating personal tab
Creating personal tab
You can edit any tab online and save it as your Personal.

You can edit, replace or remove any tab part or add personal notes – all changes will be seen only by you.

Personal tabs can be accessed anytime from any device, even offline.
Learn more »
comments
print report bad tab
1 comment total.
0 reply
Welbi 95 May 23, 2009 01:18 AM

During the verse and the chorus :

G----------------------------------|
D--------------11h-11h--10-9~------|X4
A--9h-9h-99------------------------|
E----------------------------------|

or like that :

G----------------------------------|
D----------------------------------|X4
A------------4h-4h-3-2~------------|
E--2h-2h-22------------------------|

It sounds so much better =)

guest
You may want to rate the tab now too:
select rating
Wanna post a correction for this tab? Suggest correction