Oops, an error
Loading. Please wait.

Kool Thing tab

version 1
version 1

Whole song

  • This version has both the guitar parts, and also i... Show more

Interactive

59,041 views 96 this week
9 commentsread comments
1 2 3 4 5
x 10
add to favorites
×
Save as Personal and add changes to this tab that will be seen only by you. Learn more ›
×
You can save this tab as Personal to edit and correct it or add notes. All changes will be seen only by you. Learn more »
launch autoscroll
font size
0
reset
how to read this tab
guitar tuner
backing track
0:00
0:00
edit
Autoscroll
slow
fast
+/-
esc
set tempo
stop
Author
-------------------------------------------------------------------------------
                             KOOL THING - Sonic Youth
-------------------------------------------------------------------------------
Tabbed by:Luis Gustavo Hernández Collado
Email:ltavo_87@hotmail.com

Tuning:F#F#F#F#Be

e |-regular high e-|
B |-regular B------|
F#|-high F#--------|
F#|-high F#--------| (one octave higher than previous F#)
F#|-low F#---------|
F#|-low F#---------|

[Intro]
Guitar 1
e |-----------------------|
B |-----------------------|
F#|-----------------------|
F#|-----------------------|
F#|-----------------------|
F#|-0-0-0-0-0-0-0-0-0-0-0-|

Guitar 2
e |-----------------------|
B |-----------------------|
F#|-----------------------|
F#|---------7b------------|
F#|-6r------7b------------|
F#|-----------------------|
r=let ring
b=bend

Guitar 1
e |----------------------|
B |----------------------|
F#|----------------------|X4
F#|----------------------|
F#|-00-7-0-77-00-7-5556b-|
F#|-00-7-0-77-00-7-5556b-|

Guitar 2
e |----------------------|
B |----------------------|
F#|----7---77----7-5555b-|X4
F#|----7---77----7-5555b-|
F#|-00---0----00---------|
F#|-00---0----00---------|

[Verse 1]
(Kool thing sittin' with a kiddie, now you know you're sure lookin' pretty...)

Guitar 1(X2)
e |----------------------|
B |----------------------|
F#|----------------------|
F#|----------------------|
F#|-00-7-0-77-00-7-5556b-|
F#|-00-7-0-77-00-7-5556b-|

e |----------------------|
B |----------------------|
F#|----------------------|
F#|----------------------|
F#|-00-7-0-77-00-7-55565-|
F#|-00-7-0-77-00-7-55565-|

Guitar 2
e |----------------------|
B |----------------------|
F#|----7---77----7-5555b-|X4
F#|----7---77----7-5555b-|
F#|-00---0----00---------|
F#|-00---0----00---------|

[Chorus 1]
(I don't wanna, I don't think so...)
Guitar 1
e |--------------------|
B |--------------------|
F#|----666/3-----------|X4
F#|----666/3-----------|
F#|-00-------5/666/330-|
F#|-00-------5/666/330-|

Guitar 2
e |--------------------|
B |--------------------|
F#|-xxxxxxx--55/66/7b--|X4
F#|-xxxxxxx--55/66/7b--|
F#|--------------------|
F#|--------------------|

[Verse 2]
(Kool thing let me play it with your radio...)
Guitar 1(X2)
e |----------------------|
B |----------------------|
F#|----------------------|
F#|----------------------|
F#|-00-7-0-77-00-7-5556b-|
F#|-00-7-0-77-00-7-5556b-|

e |----------------------|
B |----------------------|
F#|----------------------|
F#|----------------------|
F#|-00-7-0-77-00-7-55565-|
F#|-00-7-0-77-00-7-55565-|

Guitar 2
e |----------------------|
B |----------------------|
F#|----7---77----7-5555b-|X4
F#|----7---77----7-5555b-|
F#|-00---0----00---------|
F#|-00---0----00---------|

[Chorus 2]
(I don't wanna, I don't think so...)
Guitar 1
e |--------------------|
B |--------------------|
F#|----666/3-----------|X4
F#|----666/3-----------|
F#|-00-------5/666/330-|
F#|-00-------5/666/330-|

Guitar 2
e |--------------------|
B |--------------------|
F#|-xxxxxxx--55/66/7b--|X4
F#|-xxxxxxx--55/66/7b--|
F#|--------------------|
F#|--------------------|

[Interlude]
(Yeah! Tell'em about it! Hit'em where it hurts...)
Part 1
Guitar 1
e |----|
B |----|
F#|----|
F#|----|
F#|-0r-|
F#|-0r-|

Guitar 2
e |----|
B |----|
F#|-0r-|
F#|-0r-|
F#|----|
F#|----|

Part 2
Guitar 1
e |-------------|
B |-------------|
F#|-77/9-0-8888-|X8
F#|-77/9-0-8888-|
F#|-------------|
F#|-------------|

Guitar 2
e |----|
B |----|
F#|-0r-|
F#|-0r-|
F#|----|
F#|----|

[Verse 3]
(Kool thing sittin' with a kiddie, now you know you're sure lookin' pretty...)

Guitar 1(X2)
e |----------------------|
B |----------------------|
F#|----------------------|
F#|----------------------|
F#|-00-7-0-77-00-7-5556b-|
F#|-00-7-0-77-00-7-5556b-|

e |----------------------|
B |----------------------|
F#|----------------------|
F#|----------------------|
F#|-00-7-0-77-00-7-55565-|
F#|-00-7-0-77-00-7-55565-|

Guitar 2
e |----------------------|
B |----------------------|
F#|----7---77----7-5555b-|X4
F#|----7---77----7-5555b-|
F#|-00---0----00---------|
F#|-00---0----00---------|

[Chorus 3]
(I don't wanna, I don't think so...)
Guitar 1
e |--------------------|
B |--------------------|
F#|----666/3-----------|X4
F#|----666/3-----------|
F#|-00-------5/666/330-|
F#|-00-------5/666/330-|

Guitar 2
e |--------------------|
B |--------------------|
F#|-xxxxxxx--55/66/7b--|X4
F#|-xxxxxxx--55/66/7b--|
F#|--------------------|
F#|--------------------|

[Verse 4]
(Kool thing walking like a panther...)
Guitar 1(X2)
e |----------------------|
B |----------------------|
F#|----------------------|
F#|----------------------|
F#|-00-7-0-77-00-7-5556b-|
F#|-00-7-0-77-00-7-5556b-|

e |----------------------|
B |----------------------|
F#|----------------------|
F#|----------------------|
F#|-00-7-0-77-00-7-55565-|
F#|-00-7-0-77-00-7-55565-|

Guitar 2
e |----------------------|
B |----------------------|
F#|----7---77----7-5555b-|X4
F#|----7---77----7-5555b-|
F#|-00---0----00---------|
F#|-00---0----00---------|

Chorus 4/ Outro
(I don't wanna, I don't think so...)
Guitar 1
e |--------------------|
B |--------------------|
F#|----666/3-----------|X4
F#|----666/3-----------|
F#|-00-------5/666/330-|
F#|-00-------5/666/330-|

Guitar 2
e |--------------------|
B |--------------------|
F#|-xxxxxxx--55/66/7b--|X4
F#|-xxxxxxx--55/66/7b--|
F#|--------------------|
F#|--------------------|



************************************

| x  Dead note
| r  Release
| b  Bend
| /  Slide up 

************************************

            
            
Suggest correction
Creating personal tab
Creating personal tab
You can edit any tab online and save it as your Personal.

You can edit, replace or remove any tab part or add personal notes – all changes will be seen only by you.

Personal tabs can be accessed anytime from any device, even offline.
Learn more »
comments
print report bad tab
9 comments total. Showing first comments.
+1 reply
larry jones 371 Nov 09, 2007 11:58 AM

Someone needs to get on a power tab of this song.

-2 reply
guitarsolo_17 102 Feb 21, 2008 02:37 PM

and not in this tuning.

+3 reply
TaV0 1,984 Feb 22, 2008 01:48 AM

well, i can't do anything about the tuning you know? most songs by sonic youth have odd tunings like this!!!

guest
You may want to rate the tab now too:
select rating
Wanna post a correction for this tab? Suggest correction