Oops, an error
Loading. Please wait.

Kool Thing tab

version 3
version 3

Whole song

  • This version has both the guitar parts, and also i... Show more

Interactive

190 views 9 this week
no commentswrite comment
1 2 3 4 5
2 more votes to show rating
add to favorites
×
Save as Personal and add changes to this tab that will be seen only by you. Learn more ›
×
You can save this tab as Personal to edit and correct it or add notes. All changes will be seen only by you. Learn more »
launch autoscroll
font size
0
reset
how to read this tab
guitar tuner
backing track
0:00
0:00
edit
Autoscroll
slow
fast
+/-
esc
set tempo
stop
Author
Difficulty
About this tab version
This version has both the guitar parts, and also includes all the parts of the song in the correct original tuning. Was this info helpful? Yes No
Tuning: F#, F#, F#, F#, E, B
How to tune: E up 2, A down 3, D up 4, G down 1, B down 7, e down 5

Either follow guitar 1 or 2, both have similar-ish parts

[Intro]
Guitar 1:

PM ---------------------------------------------------------------------------

B |---------------------------------------------------------------------------|
E |---------------------------------------------------------------------------|
F#|---------------------------------------------------------------------------|
F#|---------------------------------------------------------------------------|
F#|---------------------------------------------------------------------------|
F#|-0-0-0-0-0-0-0-0-0-0-0-0-0-0-0-0-0-0-0-0-0-0-0-0-0-0-0-0-0-0-0-0-----------|

Guitar 2:

B |---------------------------------------------------------------------------|
E |---------------------------------------------------------------------------|
F#|-0-------------------------------------------------------------------------|
F#|-0-------------------------------------------------------------------------|
F#|-0-------------------------------------------------------------------------|
F#|---------------------------------------------------------------------------|

Guitar 1:

PM ---------------------------------------------------------------------------

B |---------------------------------------------------------------------------|
E |---------------------------------------------------------------------------|
F#|---------------------------------------------------------------------------|
F#|---------------------------------------------------------------------------|
F#|---------------------------------------------------------------------------|
F#|-0-0-0-0-0-0-0-0-0-0-0-0-0-0-0-0-0-0-0-0-0-0-0-0-0-0-0-0-0-0-0-0-----------|

Guitar 2:

B |--------------------------------------------------------------------------|
E |--------------------------------------------------------------------------|
F#|-5b-----------------------------------------------------------------------|
F#|-5b-----------------------------------------------------------------------|
F#|--------------------------------------------------------------------------|
F#|--------------------------------------------------------------------------|

Guitars 1 & 2:

B |------------------------------------|
E |------------------------------------|
F#|---------------------------5b-------|
F#|------7---7-7---7-----7-------------|
F#|------7---7-7---7-----7-------------|
F#|--0-0---0-----0---0-0---0-----------|

B |------------------------------------|
E |------------------------------------|
F#|---------------------------5b-------|
F#|------7---7-7---7-----7-------------|
F#|------7---7-7---7-----7-------------|
F#|--0-0---0-----0---0-0---0-----------|

B |------------------------------------|
E |------------------------------------|
F#|---------------------------5b-------|
F#|------7---7-7---7-----7-------------|
F#|------7---7-7---7-----7-------------|
F#|--0-0---0-----0---0-0---0-----------|

B |------------------------------------|
E |------------------------------------|
F#|---------------------------5b-------|
F#|------7---7-7---7-----7-------------|
F#|------7---7-7---7-----7-------------|
F#|--0-0---0-----0---0-0---0-----------|

Guitar 1:

B |--------------------------------|
E |--------------------------------|
F#|--6-6-6\3-----------------------|
F#|--------------------------------|
F#|--------------------------------|
F#|--------------3/6-6-6\1-1~--0---|

Guitar 2:

B |--------------------------------------------------|
E |--------------------------------------------------|
F#|--------------------------------------------------|
F#|--6-6-6\3-----17-17-17-17-17-18-18-18-18-18-19\---|
F#|--------------17-17-17-17-17-18-18-18-18-18-19\---|
F#|--------------------------------------------------|

Guitar 1:

B |--------------------------------|
E |--------------------------------|
F#|--6-6-6\3-----------------------|
F#|--------------------------------|
F#|--------------------------------|
F#|--------------3/6-6-6\1-1~--0---|

Guitar 2:

B |--------------------------------------------------|
E |--------------------------------------------------|
F#|--------------------------------------------------|
F#|--6-6-6\3-----17-17-17-17-17-18-18-18-18-18-19\---|
F#|--------------17-17-17-17-17-18-18-18-18-18-19\---|
F#|--------------------------------------------------|

Guitar 1:

B |--------------------------------|
E |--------------------------------|
F#|--6-6-6\3-----------------------|
F#|--------------------------------|
F#|--------------------------------|
F#|--------------3/6-6-6\1-1~--0---|

Guitar 2:

B |--------------------------------------------------|
E |--------------------------------------------------|
F#|--------------------------------------------------|
F#|--6-6-6\3-----17-17-17-17-17-18-18-18-18-18-19\---|
F#|--------------17-17-17-17-17-18-18-18-18-18-19\---|
F#|--------------------------------------------------|

Guitar 1:

B |--------------------------------|
E |--------------------------------|
F#|--6-6-6\3-----------------------|
F#|--------------------------------|
F#|--------------------------------|
F#|--------------3/6-6-6\1-1~--0---|

Guitar 2:

B |--------------------------------------------------|
E |--------------------------------------------------|
F#|--------------------------------------------------|
F#|--6-6-6\3-----17-17-17-17-17-18-18-18-18-18-19\---|
F#|--------------17-17-17-17-17-18-18-18-18-18-19\---|
F#|--------------------------------------------------|

[Verse]
Guitars 1 & 2:

B |------------------------------------|
E |------------------------------------|
F#|---------------------------5b-------|
F#|------7---7-7---7-----7-------------|
F#|------7---7-7---7-----7-------------|
F#|--0-0---0-----0---0-0---0-----------|

B |------------------------------------|
E |------------------------------------|
F#|---------------------------5b-------|
F#|------7---7-7---7-----7-------------|
F#|------7---7-7---7-----7-------------|
F#|--0-0---0-----0---0-0---0-----------|

B |------------------------------------|
E |------------------------------------|
F#|---------------------------5b-------|
F#|------7---7-7---7-----7-------------|
F#|------7---7-7---7-----7-------------|
F#|--0-0---0-----0---0-0---0-----------|

B |------------------------------------|
E |------------------------------------|
F#|---------------------------5b-------|
F#|------7---7-7---7-----7-------------|
F#|------7---7-7---7-----7-------------|
F#|--0-0---0-----0---0-0---0-----------|

[Chorus]
Guitar 1:

B |--------------------------------|
E |--------------------------------|
F#|--6-6-6\3-----------------------|
F#|--------------------------------|
F#|--------------------------------|
F#|--------------3/6-6-6\1-1~--0---|

Guitar 2:

B |--------------------------------------------------|
E |--------------------------------------------------|
F#|--------------------------------------------------|
F#|--6-6-6\3-----17-17-17-17-17-18-18-18-18-18-19\---|
F#|--------------17-17-17-17-17-18-18-18-18-18-19\---|
F#|--------------------------------------------------|

Guitar 1:

B |--------------------------------|
E |--------------------------------|
F#|--6-6-6\3-----------------------|
F#|--------------------------------|
F#|--------------------------------|
F#|--------------3/6-6-6\1-1~--0---|

Guitar 2:

B |--------------------------------------------------|
E |--------------------------------------------------|
F#|--------------------------------------------------|
F#|--6-6-6\3-----17-17-17-17-17-18-18-18-18-18-19\---|
F#|--------------17-17-17-17-17-18-18-18-18-18-19\---|
F#|--------------------------------------------------|

Guitar 1:

B |--------------------------------|
E |--------------------------------|
F#|--6-6-6\3-----------------------|
F#|--------------------------------|
F#|--------------------------------|
F#|--------------3/6-6-6\1-1~--0---|

Guitar 2:

B |--------------------------------------------------|
E |--------------------------------------------------|
F#|--------------------------------------------------|
F#|--6-6-6\3-----17-17-17-17-17-18-18-18-18-18-19\---|
F#|--------------17-17-17-17-17-18-18-18-18-18-19\---|
F#|--------------------------------------------------|

Guitar 1:

B |--------------------------------|
E |--------------------------------|
F#|--6-6-6\3-----------------------|
F#|--------------------------------|
F#|--------------------------------|
F#|--------------3/6-6-6\1-1~--0---|

Guitar 2:

B |--------------------------------------------------|
E |--------------------------------------------------|
F#|--------------------------------------------------|
F#|--6-6-6\3-----17-17-17-17-17-18-18-18-18-18-19\---|
F#|--------------17-17-17-17-17-18-18-18-18-18-19\---|
F#|--------------------------------------------------|

[Verse]
Guitars 1 & 2:

B |------------------------------------|
E |------------------------------------|
F#|---------------------------5b-------|
F#|------7---7-7---7-----7-------------|
F#|------7---7-7---7-----7-------------|
F#|--0-0---0-----0---0-0---0-----------|

B |------------------------------------|
E |------------------------------------|
F#|---------------------------5b-------|
F#|------7---7-7---7-----7-------------|
F#|------7---7-7---7-----7-------------|
F#|--0-0---0-----0---0-0---0-----------|

B |------------------------------------|
E |------------------------------------|
F#|---------------------------5b-------|
F#|------7---7-7---7-----7-------------|
F#|------7---7-7---7-----7-------------|
F#|--0-0---0-----0---0-0---0-----------|

B |------------------------------------|
E |------------------------------------|
F#|---------------------------5b-------|
F#|------7---7-7---7-----7-------------|
F#|------7---7-7---7-----7-------------|
F#|--0-0---0-----0---0-0---0-----------|

[Chorus]
Guitar 1:

B |--------------------------------|
E |--------------------------------|
F#|--6-6-6\3-----------------------|
F#|--------------------------------|
F#|--------------------------------|
F#|--------------3/6-6-6\1-1~--0---|

Guitar 2:

B |--------------------------------------------------|
E |--------------------------------------------------|
F#|--------------------------------------------------|
F#|--6-6-6\3-----17-17-17-17-17-18-18-18-18-18-19\---|
F#|--------------17-17-17-17-17-18-18-18-18-18-19\---|
F#|--------------------------------------------------|

Guitar 1:

B |--------------------------------|
E |--------------------------------|
F#|--6-6-6\3-----------------------|
F#|--------------------------------|
F#|--------------------------------|
F#|--------------3/6-6-6\1-1~--0---|

Guitar 2:

B |--------------------------------------------------|
E |--------------------------------------------------|
F#|--------------------------------------------------|
F#|--6-6-6\3-----17-17-17-17-17-18-18-18-18-18-19\---|
F#|--------------17-17-17-17-17-18-18-18-18-18-19\---|
F#|--------------------------------------------------|

Guitar 1:

B |--------------------------------|
E |--------------------------------|
F#|--6-6-6\3-----------------------|
F#|--------------------------------|
F#|--------------------------------|
F#|--------------3/6-6-6\1-1~--0---|

Guitar 2:

B |--------------------------------------------------|
E |--------------------------------------------------|
F#|--------------------------------------------------|
F#|--6-6-6\3-----17-17-17-17-17-18-18-18-18-18-19\---|
F#|--------------17-17-17-17-17-18-18-18-18-18-19\---|
F#|--------------------------------------------------|

Guitar 1:

B |--------------------------------|
E |--------------------------------|
F#|--6-6-6\3-----------------------|
F#|--------------------------------|
F#|--------------------------------|
F#|--------------3/6-6-6\1-1~--0---|

Guitar 2:

B |--------------------------------------------------|
E |--------------------------------------------------|
F#|--------------------------------------------------|
F#|--6-6-6\3-----17-17-17-17-17-18-18-18-18-18-19\---|
F#|--------------17-17-17-17-17-18-18-18-18-18-19\---|
F#|--------------------------------------------------|

[Spoken Bridge]
Guitars 1 & 2:

(Occasionally hit the F# note, use some whammy bar vibrato, make some feedback aswell.)

B |-----------|
E |-----------|
F#|-----------|
F#|-----------|
F#|-----------|
F#|-0~~~------|

[Bridge]

Guitar 1:

B |--------------------------------------|
E |------------18~--18-18-18-18-18-18----|
F#|--------------------------------------|
F#|------------16~--16-16-16-16-16-16----|
F#|--------------------------------------|
F#|-0---0-0-0----------------------------|

Guitar 2:

(Use a pen as a slide or something, just make noise high up on the frets.)

Guitar 1:

B |--------------------------------------|
E |------------18~--18-18-18-18-18-18----|
F#|--------------------------------------|
F#|------------16~--16-16-16-16-16-16----|
F#|--------------------------------------|
F#|-0---0-0-0----------------------------|

Guitar 2:

(Use a pen as a slide or something, just make noise high up on the frets.)

Guitar 1:

B |--------------------------------------|
E |------------18~--18-18-18-18-18-18----|
F#|--------------------------------------|
F#|------------16~--16-16-16-16-16-16----|
F#|--------------------------------------|
F#|-0---0-0-0----------------------------|

Guitar 2:

(Use a pen as a slide or something, just make noise high up on the frets.)

Guitar 1:

B |--------------------------------------|
E |------------18~--18-18-18-18-18-18----|
F#|--------------------------------------|
F#|------------16~--16-16-16-16-16-16----|
F#|--------------------------------------|
F#|-0---0-0-0----------------------------|

Guitar 2:

(Use a pen as a slide or something, just make noise high up on the frets.)

Guitar 1:

B |------------------------------------|
E |------------------------------------|
F#|------------------------------------|
F#|--7-7-9-0-7-9-0-8-8-10-0-8-8-10-0---|
F#|------------------------------------|
F#|------------------------------------|

Guitar 2:

B |----------------------------------------|
E |----------------------------------------|
F#|------------19--18--18-18-18-18-18-18---|
F#|------------19--18--18-18-18-18-18-18---|
F#|----------------------------------------|
F#|-0-0-0-0-0----0-------------------------|

Guitar 1:

B |------------------------------------|
E |------------------------------------|
F#|------------------------------------|
F#|--7-7-9-0-7-9-0-8-8-10-0-8-8-10-0---|
F#|------------------------------------|
F#|------------------------------------|

Guitar 2:

B |----------------------------------------|
E |----------------------------------------|
F#|------------19--18--18-18-18-18-18-18---|
F#|------------19--18--18-18-18-18-18-18---|
F#|----------------------------------------|
F#|-0-0-0-0-0----0-------------------------|

Guitar 1:

B |------------------------------------|
E |------------------------------------|
F#|------------------------------------|
F#|--7-7-9-0-7-9-0-8-8-10-0-8-8-10-0---|
F#|------------------------------------|
F#|------------------------------------|

Guitar 2:

B |----------------------------------------|
E |----------------------------------------|
F#|------------19--18--18-18-18-18-18-18---|
F#|------------19--18--18-18-18-18-18-18---|
F#|----------------------------------------|
F#|-0-0-0-0-0----0-------------------------|

Guitar 1:

B |------------------------------------|
E |------------------------------------|
F#|------------------------------------|
F#|--7-7-9-0-7-9-0-8-8-10-0-8-8-10-0---|
F#|------------------------------------|
F#|------------------------------------|

Guitar 2:

B |----------------------------------------|
E |----------------------------------------|
F#|------------19--18--18-18-18-18-18-18---|
F#|------------19--18--18-18-18-18-18-18---|
F#|----------------------------------------|
F#|-0-0-0-0-0----0-------------------------|

Guitar 1:

B |--------------------------------------|
E |--------------------------------------|
F#|--------------------------------------|
F#|--------------------------------------|
F#|--7-7-9-0-7-9-0-8-8-10-0-8-8-10-0-----|
F#|--7-7-9-0-7-9-0-8-8-10-0-8-8-10-0-----|

Guitar 2:

B |------------------------------------------|
E |------------------------------------------|
F#|-------------7----10--10-10-10-10-10-10---|
F#|-------------7----10--10-10-10-10-10-10---|
F#|------------------------------------------|
F#|-0--0-0-0-0----0--------------------------|


Guitar 1:

B |--------------------------------------|
E |--------------------------------------|
F#|--------------------------------------|
F#|--------------------------------------|
F#|--7-7-9-0-7-9-0-8-8-10-0-8-8-10-0-----|
F#|--7-7-9-0-7-9-0-8-8-10-0-8-8-10-0-----|

Guitar 2:

B |------------------------------------------|
E |------------------------------------------|
F#|-------------7----10--10-10-10-10-10-10---|
F#|-------------7----10--10-10-10-10-10-10---|
F#|------------------------------------------|
F#|-0--0-0-0-0----0--------------------------|


Guitar 1:

B |--------------------------------------|
E |--------------------------------------|
F#|--------------------------------------|
F#|--------------------------------------|
F#|--7-7-9-0-7-9-0-8-8-10-0-8-8-10-0-----|
F#|--7-7-9-0-7-9-0-8-8-10-0-8-8-10-0-----|

Guitar 2:

B |------------------------------------------|
E |------------------------------------------|
F#|-------------7----10--10-10-10-10-10-10---|
F#|-------------7----10--10-10-10-10-10-10---|
F#|------------------------------------------|
F#|-0--0-0-0-0----0--------------------------|


Guitar 1:

B |--------------------------------------|
E |--------------------------------------|
F#|--------------------------------------|
F#|--------------------------------------|
F#|--7-7-9-0-7-9-0-8-8-10-0-8-8-10-0-----|
F#|--7-7-9-0-7-9-0-8-8-10-0-8-8-10-0-----|

Guitar 2:

B |------------------------------------------|
E |------------------------------------------|
F#|-------------7----10--10-10-10-10-10-10---|
F#|-------------7----10--10-10-10-10-10-10---|
F#|------------------------------------------|
F#|-0--0-0-0-0----0--------------------------|


Guitar 1:

B |--------------------------------------|
E |------------18~--18-18-18-18-18-18----|
F#|--------------------------------------|
F#|------------16~--16-16-16-16-16-16----|
F#|--------------------------------------|
F#|-0---0-0-0----------------------------|

Guitar 2:

(Use a pen as a slide or something, just make noise high up on the frets.)

Guitar 1:

B |--------------------------------------|
E |------------18~--18-18-18-18-18-18----|
F#|--------------------------------------|
F#|------------16~--16-16-16-16-16-16----|
F#|--------------------------------------|
F#|-0---0-0-0----------------------------|

Guitar 2:

(Use a pen as a slide or something, just make noise high up on the frets.)

Guitar 1:

B |--------------------------------------|
E |------------18~--18-18-18-18-18-18----|
F#|--------------------------------------|
F#|------------16~--16-16-16-16-16-16----|
F#|--------------------------------------|
F#|-0---0-0-0----------------------------|

Guitar 2:

(Use a pen as a slide or something, just make noise high up on the frets.)

Guitar 1:

B |--------------------------------------|
E |------------18~--18-18-18-18-18-18----|
F#|--------------------------------------|
F#|------------16~--16-16-16-16-16-16----|
F#|--------------------------------------|
F#|-0---0-0-0----------------------------|

Guitar 2:

(Use a pen as a slide or something, just make noise high up on the frets.)

[Verse]
Guitars 1 & 2:

B |------------------------------------|
E |------------------------------------|
F#|---------------------------5b-------|
F#|------7---7-7---7-----7-------------|
F#|------7---7-7---7-----7-------------|
F#|--0-0---0-----0---0-0---0-----------|

B |------------------------------------|
E |------------------------------------|
F#|---------------------------5b-------|
F#|------7---7-7---7-----7-------------|
F#|------7---7-7---7-----7-------------|
F#|--0-0---0-----0---0-0---0-----------|

B |------------------------------------|
E |------------------------------------|
F#|---------------------------5b-------|
F#|------7---7-7---7-----7-------------|
F#|------7---7-7---7-----7-------------|
F#|--0-0---0-----0---0-0---0-----------|

B |------------------------------------|
E |------------------------------------|
F#|---------------------------5b-------|
F#|------7---7-7---7-----7-------------|
F#|------7---7-7---7-----7-------------|
F#|--0-0---0-----0---0-0---0-----------|

[Chorus]
Guitar 1:

B |--------------------------------|
E |--------------------------------|
F#|--6-6-6\3-----------------------|
F#|--------------------------------|
F#|--------------------------------|
F#|--------------3/6-6-6\1-1~--0---|

Guitar 2:

B |--------------------------------------------------|
E |--------------------------------------------------|
F#|--------------------------------------------------|
F#|--6-6-6\3-----17-17-17-17-17-18-18-18-18-18-19\---|
F#|--------------17-17-17-17-17-18-18-18-18-18-19\---|
F#|--------------------------------------------------|

Guitar 1:

B |--------------------------------|
E |--------------------------------|
F#|--6-6-6\3-----------------------|
F#|--------------------------------|
F#|--------------------------------|
F#|--------------3/6-6-6\1-1~--0---|

Guitar 2:

B |--------------------------------------------------|
E |--------------------------------------------------|
F#|--------------------------------------------------|
F#|--6-6-6\3-----17-17-17-17-17-18-18-18-18-18-19\---|
F#|--------------17-17-17-17-17-18-18-18-18-18-19\---|
F#|--------------------------------------------------|

Guitar 1:

B |--------------------------------|
E |--------------------------------|
F#|--6-6-6\3-----------------------|
F#|--------------------------------|
F#|--------------------------------|
F#|--------------3/6-6-6\1-1~--0---|

Guitar 2:

B |--------------------------------------------------|
E |--------------------------------------------------|
F#|--------------------------------------------------|
F#|--6-6-6\3-----17-17-17-17-17-18-18-18-18-18-19\---|
F#|--------------17-17-17-17-17-18-18-18-18-18-19\---|
F#|--------------------------------------------------|

Guitar 1:

B |--------------------------------|
E |--------------------------------|
F#|--6-6-6\3-----------------------|
F#|--------------------------------|
F#|--------------------------------|
F#|--------------3/6-6-6\1-1~--0---|

Guitar 2:

B |--------------------------------------------------|
E |--------------------------------------------------|
F#|--------------------------------------------------|
F#|--6-6-6\3-----17-17-17-17-17-18-18-18-18-18-19\---|
F#|--------------17-17-17-17-17-18-18-18-18-18-19\---|
F#|--------------------------------------------------|

[Verse]
Guitars 1 & 2:

B |------------------------------------|
E |------------------------------------|
F#|---------------------------5b-------|
F#|------7---7-7---7-----7-------------|
F#|------7---7-7---7-----7-------------|
F#|--0-0---0-----0---0-0---0-----------|

B |------------------------------------|
E |------------------------------------|
F#|---------------------------5b-------|
F#|------7---7-7---7-----7-------------|
F#|------7---7-7---7-----7-------------|
F#|--0-0---0-----0---0-0---0-----------|

B |------------------------------------|
E |------------------------------------|
F#|---------------------------5b-------|
F#|------7---7-7---7-----7-------------|
F#|------7---7-7---7-----7-------------|
F#|--0-0---0-----0---0-0---0-----------|

B |------------------------------------|
E |------------------------------------|
F#|---------------------------5b-------|
F#|------7---7-7---7-----7-------------|
F#|------7---7-7---7-----7-------------|
F#|--0-0---0-----0---0-0---0-----------|

[Chorus]
Guitar 1:

B |--------------------------------|
E |--------------------------------|
F#|--6-6-6\3-----------------------|
F#|--------------------------------|
F#|--------------------------------|
F#|--------------3/6-6-6\1-1~--0---|

Guitar 2:

B |--------------------------------------------------|
E |--------------------------------------------------|
F#|--------------------------------------------------|
F#|--6-6-6\3-----17-17-17-17-17-18-18-18-18-18-19\---|
F#|--------------17-17-17-17-17-18-18-18-18-18-19\---|
F#|--------------------------------------------------|

Guitar 1:

B |--------------------------------|
E |--------------------------------|
F#|--6-6-6\3-----------------------|
F#|--------------------------------|
F#|--------------------------------|
F#|--------------3/6-6-6\1-1~--0---|

Guitar 2:

B |--------------------------------------------------|
E |--------------------------------------------------|
F#|--------------------------------------------------|
F#|--6-6-6\3-----17-17-17-17-17-18-18-18-18-18-19\---|
F#|--------------17-17-17-17-17-18-18-18-18-18-19\---|
F#|--------------------------------------------------|

Guitar 1:

B |--------------------------------|
E |--------------------------------|
F#|--6-6-6\3-----------------------|
F#|--------------------------------|
F#|--------------------------------|
F#|--------------3/6-6-6\1-1~--0---|

Guitar 2:

B |--------------------------------------------------|
E |--------------------------------------------------|
F#|--------------------------------------------------|
F#|--6-6-6\3-----17-17-17-17-17-18-18-18-18-18-19\---|
F#|--------------17-17-17-17-17-18-18-18-18-18-19\---|
F#|--------------------------------------------------|

Guitar 1:

B |--------------------------------|
E |--------------------------------|
F#|--6-6-6\3-----------------------|
F#|--------------------------------|
F#|--------------------------------|
F#|--------------3/6-6-6\1-1~--0---|

Guitar 2:

B |--------------------------------------------------|
E |--------------------------------------------------|
F#|--------------------------------------------------|
F#|--6-6-6\3-----17-17-17-17-17-18-18-18-18-18-19\---|
F#|--------------17-17-17-17-17-18-18-18-18-18-19\---|
F#|--------------------------------------------------|

[Outro]
B |-----|
E |-----|
F#|-----|
F#|-----|
F#|-----|
F#|-0---|

************************************
| b   Bend
| /   Slide up
| \   Slide down
| ~   Vibrato
| PM  Palm mute
************************************
Suggest correction
Creating personal tab
Creating personal tab
You can edit any tab online and save it as your Personal.

You can edit, replace or remove any tab part or add personal notes – all changes will be seen only by you.

Personal tabs can be accessed anytime from any device, even offline.
Learn more »
Give kudos to tab author, rate the tab!
1 2 3 4 5
comments
print report bad tab
guest
You may want to rate the tab now too:
select rating
Wanna post a correction for this tab? Suggest correction