Oops, an error
Loading. Please wait.

Silver Rocket tab

version 1
version 1

Whole song

Interactive

7,684 views 6 this week
2 commentsread comments
1 2 3 4 5
x 3
add to favorites
×
Save as Personal and add changes to this tab that will be seen only by you. Learn more ›
×
You can save this tab as Personal to edit and correct it or add notes. All changes will be seen only by you. Learn more »
launch autoscroll
font size
0
reset
how to read this tab
guitar tuner
edit
Autoscroll
slow
fast
+/-
esc
set tempo
stop
Author
Unregistered
Silver Rocket by Sonic Youth
(Teenage Riot coming soon!)

Tuning low to high:
ACCGG#C

How to tune:
Tune the high E to the fifth fret of the G string.  Tune the B to the
first fret of the G string.  Tune the D string to the third fret of the
A string. Tune the E string up to the A string.  Tune the A string
to match the old D string (now C string).

 C|-------9---------5---|----------------------------|---------------------------|
G#|------9-9---------5--|----------------------------|---------------------------|
 G|-----9---9----5----5-|--0-0-0-0-0-0-0-3-3-3-3-3-3-|-0-0-0-0-0-0-0-3-3-3-3-3-3-|
 C|----9-----9--5-5----5|--0-0-0-0-0-0-0-3-3-3-3-3-3-|-0-0-0-0-0-0-0-3-3-3-3-3-3-|
 C|---9--------5--------|--0-0-0-0-0-0-0-3-3-3-3-3-3-|-0-0-0-0-0-0-0-3-3-3-3-3-3-|
 A|---------------------|----------------------------|-3-3-3-3-3-3-3-0-0-0-0-0-0-|

Now the guitars split up:

Guitar I:

 C|---------11-11-11-9-------------------------11-11-11-9----------------------|
G#|---------11-11-11-9-9--11-11-9--11-9--11-9--11-11-11-9-9--11-11-11-11-11-11-|
 G|--------------------10-12-12-10-12-10-12-10------------10-12-12-12-12-12-12-|
 C|----------------------------------------------------------------------------|
 C|----------------------------------------------------------------------------|
 A|---xsl-0--------------------------------------------------------------------|

Guitar II: (no timing represented)

 C|---7-------3----| repeat with above |--0--|
G#|---8-------4----|             then: |--0--| for the "solo" or noise or whatever.
 G|---9-------5----|                   |--0--|
 C|---7-------3----|                   |--0--|
 C|---7-------3----|                   |--0--|
 A|----------------|                   |--0--|

The last chord is played on two guitars:
022XXX and 066766.

IF YOU POST THIS ANYWHERE ELSE, PLEASE GIVE ME CREDIT.
thanks.
elric@selway.umt.edu
Suggest correction
Creating personal tab
Creating personal tab
You can edit any tab online and save it as your Personal.

You can edit, replace or remove any tab part or add personal notes – all changes will be seen only by you.

Personal tabs can be accessed anytime from any device, even offline.
Learn more »
Give kudos to tab author, rate the tab!
1 2 3 4 5
comments
print report bad tab
2 comments total.
0 reply
MinorThreat91 15 Apr 11, 2007 06:51 PM

I broke my E string when I tried to tune it up. :[

0 reply
yellowtree196 10 Sep 26, 2016 02:12 PM

I broke my d string tunning back to standered

guest
Wanna post a correction for this tab? Suggest correction