Oops, an error
Loading. Please wait.

Silver Rocket tab

version 3
version 3

Whole song

Interactive

307 views 3 this week
no commentswrite comment
1 2 3 4 5
2 more votes to show rating
add to favorites
×
Save as Personal and add changes to this tab that will be seen only by you. Learn more ›
×
You can save this tab as Personal to edit and correct it or add notes. All changes will be seen only by you. Learn more »
launch autoscroll
font size
0
reset
how to read this tab
guitar tuner
edit
Autoscroll
slow
fast
+/-
esc
set tempo
stop
Difficulty
intermediate
This is a way of tuning to/playing Silver Rocket without having to restring your guitar 
I worked out.
It seems pretty dead on to me but feel free to use it as the basis for an improved tab.

Riff One - TM

d |----------7-----------------3---------------------|
A#|------7-----7-----------3-----3-------------------|
A |----7---7-----7-------3---3-----3-----------------|
D |--7-------------7---3-------------3---------------|
A |--------------------------------------------------|
D |--------------------------------------------------|

Riff Two - TM + LR Combined

High notes in brackets are from Thurston's (quieter) part and I'm not sure if they're 
always played,
but they're useful for achieving that that SY dissonance. Lower bracketed note is from 
the bass part.

d |--------------------------------------------------|
A#|-(3)-(3)-(3)(3)(3)----(6)-(6)-(6)(6)(6)-----------|
A |--3---3---3--3--3------6---6---6--6--6------------|
D |--5---5---5--5--5------8---8---8--8--8------------|
A |--3---3---3--3--3--0---6---6---6--6--6------------|
D |--------------------------------------------------|

d |--------------------------------------------------|
A#|-(3)-(3)-(3)(3)(3)----(6)-(6)-(6)(6)(6)-----------|
A |--3---3---3--3--3------6---6---6--6--6------------|
D |--5---5---5--5--5------8---8---8--8--8------------|
A |--3---3---3--3--3--0---6---6---6--6--6------------|
D |----------------------(7)-(7)-(7)(7)(7)-----------|


Riff 3 - TM + LR Combined

d |------9-9-9-7-----------5-5-3-5-5-5-3-------------|
A#|--7---7-7-7-7-------3---3-3-3-3-3-3-3-------------|
A |--7---7-7-7-7-------3---3-3-3-3-3-3-3-------------|
D |--7---7-7-7-7-------3---3-3-3-3-3-3-3-------------|
A |--------------------------------------------------|
D |--------------------------------------------------|

            
            
Suggest correction
Creating personal tab
Creating personal tab
You can edit any tab online and save it as your Personal.

You can edit, replace or remove any tab part or add personal notes – all changes will be seen only by you.

Personal tabs can be accessed anytime from any device, even offline.
Learn more »
Give kudos to tab author, rate the tab!
1 2 3 4 5
comments
print report bad tab
guest
Wanna post a correction for this tab? Suggest correction