Oops, an error
Loading. Please wait.

Teen Age Riot bass

628 views 18 this week
no commentswrite comment
1 2 3 4 5
2 more votes to show rating
add to favorites
×
Save as Personal and add changes to this tab that will be seen only by you. Learn more ›
×
You can save this tab as Personal to edit and correct it or add notes. All changes will be seen only by you. Learn more »
launch autoscroll
font size
0
reset
guitar tuner
backing track
0:00
0:00
edit
Autoscroll
slow
fast
+/-
esc
set tempo
stop
Author
Unregistered
You may have to listen to this a few times to get it


Intro:

G|--------------
D|-5------------
A|------7-------
E|--------------

Main Riff:

G|------------------------
D|------------------------
A|--------------5---------
E|-3---------3------------

Verse:

G|--------------------------------
D|-5--5-5------5--5-5-----7--7-7--
A|--------------------------------
E|--------------------------------

In live versions Kim will play it like this:

G|---------------------------------------------------
D|-5-5-5-5-5-5-5-5-5-5-5-5-5-5-5-5-7-7-7-7-7-7-7-7-7-
A|---------------------------------------------------
E|---------------------------------------------------

Chorus:

G|-----------------------------------------------------
D|-5--5-5-------5--5-5-----12--12-12---5-5-5-5-5-5-5-5-
A|-----------------------------------------------------
E|-----------------------------------------------------

In live versions Kim will play it like this:

G|---------------------------------------------------------------------------------
D|-5-5-5-5-5-5-5-5-5-5-5-5-5-5-5-5-5-12-12-12-12-12-12-12-12-5-5-5-5-5-5-5-5-5-5-5-
A|---------------------------------------------------------------------------------
E|---------------------------------------------------------------------------------

During the break Kim just slides up and down the neck on the D string

            
            
Suggest correction
Creating personal tab
Creating personal tab
You can edit any tab online and save it as your Personal.

You can edit, replace or remove any tab part or add personal notes – all changes will be seen only by you.

Personal tabs can be accessed anytime from any device, even offline.
Learn more »
Give kudos to tab author, rate the tab!
1 2 3 4 5
comments
print report bad tab
guest
Wanna post a correction for this tab? Suggest correction