Oops, an error
Loading. Please wait.

Teenage Riot tab

version 3
version 3

Whole song

Interactive

94,819 views 189 this week
3 commentsread comments
1 2 3 4 5
x 16
add to favorites
×
Save as Personal and add changes to this tab that will be seen only by you. Learn more ›
×
You can save this tab as Personal to edit and correct it or add notes. All changes will be seen only by you. Learn more »
launch autoscroll
font size
0
reset
how to read this tab
guitar tuner
edit
Autoscroll
slow
fast
+/-
esc
set tempo
stop
Author
[Intro]

E|----------------------------------|
B|----------------------------------|
G|--7--7-7-7-5-5------0---0--0-5-5--|
D|--7--7-7-7-7-7---------------7-7--| repeat
A|------------------0---0-----------|
E|----------------------------------|


[Bridge 1]

E|-----------------------------------------------------|
B|-----------------------------------------------------|
G|------7--7--7--5-------------------------------------|
D|------7--7--7--7-----7-7-7-7-7-5-0-0-0-0-0-7-7-7-5-0-|
A|--5------------------7-7-7-7-7-7-0-0-0-0-0-7-7-7-7-0-|
E|--7--------------------------------------------------|

E|------------------------------------------------------|
B|------------------------------------------------------|
G|------7—7---5-------------------------------4-4-4-4-4-|
D|------7—7---7------------5--4----4--5-5-5-5-5-5-5-5-5-|
A|--5---------------5--7---------7----0-0-0-0-----------|
E|--7---------------------------------------------------|


[Verse]

E|---------------------------------------------|
B|---------------------------------------------|
G|-------4----4--------2--------2----2-------4-|
D|-------0----0--------0--------0----0-------0-| repeat
A|-------2----2--------2--------2----2-------2-|
E|--3-3----3----3-3-------3-3-----3------3-----|   

I'm not sure about how many times do you play those 3's but listen to the song and 
eventually figure out the rhytm. Then play:

E|-----------------------------------------|
B|-----------------------------------------|
G|--2---2-2---2-2---12-12-12---9--9-9------|
D|--2---2-2---2-2---12-12-12---7--7-7------|
A|--0---0-0---0-0---12-12-12---7--7-7------|
E|--3---3-3---3-3--------------------------|


[Chorus]
 
(chords, listen to the song, strumming is very simple to figure out)

E|---------------------------------------|
B|---------------------------------------|
G|----------------------------------0----|
D|----------------------------------5----|
A|--12---14---15---14---15---12-----0----|
E|--15---15---15---14---15---15-----5----|


[Bridge 2]

(repeat a few times,then go back to verse)

Strum this chord first:

E|------|
B|------|
G|--0---|
D|--5---|
A|--0---|
E|--5---|

then:

E|-----------------------------------------------------|
B|-----------------------------------------------------|
G|------7--7--7--5-------------------------------------|
D|------7--7--7--7-----7-7-7-7-7-5-0-0-0-0-0-7-7-7-5-0-|
A|--5------------------7-7-7-7-7-7-0-0-0-0-0-7-7-7-7-0-|
E|--7--------------------------------------------------|

E|----------------------------------------------------------------|
B|----------------------------------------------------------------|
G|------7—7---5-------------------------------1-6-1-6-1-6-1-6-1-6-|
D|------7—7---7------------5--4----4--5-5-5-5-1-7-1-7-1-7-1-7-1-7-|
A|--5---------------5--7---------7----0-0-0-0---------------------|
E|--7-------------------------------------------------------------|

End with

E|------|
B|------|
G|--0---|
D|--5---|
A|--0---|
E|--5---|

This is just a STANDARD TUNING interpretation. If you want to play like Thurston, use 
tuning. And a different tab.
Suggest correction
Creating personal tab
Creating personal tab
You can edit any tab online and save it as your Personal.

You can edit, replace or remove any tab part or add personal notes – all changes will be seen only by you.

Personal tabs can be accessed anytime from any device, even offline.
Learn more »
comments
print report bad tab
3 comments total.
+13 reply
pwninator123 50 Jul 09, 2009 07:22 PM

Sonic Youth song in standard tuning, never thought I'd see the day...

0 reply
ThurstonMoore 10 Aug 19, 2009 07:59 AM

Great tab and interpretation. Sounds almost just like the song

guest
You may want to rate the tab now too:
select rating
Wanna post a correction for this tab? Suggest correction