Oops, an error
Loading. Please wait.

Cuanto Me Cuesta Tab

version 1
version 1

Whole song

by Sonica
35 views 1 this week
no commentswrite comment
1 2 3 4 5
3 more votes to show rating
add to favorites
launch autoscroll
font size
0
reset
how to read this tab
guitar tuner
×
Best way to learn
"Cuanto Me Cuesta"
Autoscroll
slow
fast
+/-
esc
set tempo
stop
Intro despues del Go de Jean Carlos:
Riff 1

1----------------------------------------------------------
2----------------------------------------------------------
3------7/8-8---------7/8-8---------7/8-8-------------------
4---8--7/8-8------8--7/8-8------8--7/8-8-----555--6666----- x2
5---8--5/6-6------8--5/6-6------8--5/6-6-----555--6666-----
6---6-------------6-------------6------------333--4444-----

A#
Hoy intento una ves mas
D
trate de recordar
D#
cuando fue la ultima vez
F
que pense en ti
A#
no fue tan dificil ver
D
tan dificil ver
D#
que lo hago a diario
F
y que no lo puedo esconder

Riff 1

A#
Hoy me di cuenta que
D
lo que sentia por ti
D#
era mas fuerte que
F
lo que sentias por mi
A#                       D
no fue tan dificil creer(tan dificil creer)
D#
que lo hago a diario
F
y que no lo puedo esconder


A#        D         D#          F
Cuando yo pienso en todo lo que dije
A#        D         D#          F
Cuando yo pienso en todo lo que hicistes tu por mi

(Coro)
A#        D
Cuanto me cuesta
G          D#
(tratar de olvidar)
A#        D
Cuanto me cuesta
G          D#
(dejar de pensar)
A#        D
hoy es un dia
G          D#
que razonaria
A#        D   G          D#
solo pensaba tu y yo una ves (bis)


A#        D         D#          F
Cuando yo pienso en todo lo que dije
A#        D         D#          F
Cuando yo pienso en todo lo que hicistes tu por mi


Coro)
A#        D
Cuanto me cuesta
G          D#
(tratar de olvidar)
A#        D
Cuanto me cuesta
G          D#
(dejar de pensar)
A#        D
hoy es un dia
G          D#
que razonaria
A#        D   G          D#
solo pensaba tu y yo una ves (bis)

Riff 1
_________________________________________

En todos los Riff 1 la segunda guitarra hace esto:

1----------------------------------------------------------
2----------------------------------------------------------
3---10-7/8-8------10-7/8-8------10--7/8-8------------------
4---10-7/8-8------10-7/8-8------10--7/8-8----555--6666----- x2
5---8--5/6-6------8--5/6-6------8---5/6-6----555--6666-----
6--------------------------------------------333--4444-----

Bueno esa es la cancion y la primera tablatura que subo, que la disfruten!
Suggest correction
Give kudos to tab author, rate the tab!
1 2 3 4 5
comments
print report bad tab
guest
You may want to rate the tab now too:
select rating
Wanna post a correction for this tab? Suggest correction