Oops, an error
Loading. Please wait.

Cuanto Me Cuesta Tab

version 2
version 2

Whole song

by Sonica
65 views 6 this week
no commentswrite comment
1 2 3 4 5
3 more votes to show rating
add to favorites
launch autoscroll
font size
0
reset
how to read this tab
guitar tuner
×
Best way to learn
"Cuanto Me Cuesta"
Autoscroll
slow
fast
+/-
esc
set tempo
stop
INTRO:

|----------------------------------------------------------
|----------------------------------------------------------
|------6/7-7---------6/7-7---------6/7-7-------------------
|---7--6/7-7------7--6/7-7------7--6/7-7-----444--5555-----
|---7--4/5-5------7--4/5-5------7--4/5-5-----444--5555----- x2
|---5-------------5-------------5------------222--3333-----


A5
Hoy intento una ves mas
C#5
trate de recordar
D5
cuando fue la ultima vez
E5
que pense en ti
A5
no fue tan dificil ver
C#5
tan dificil ver
D5
que lo hago a diario
E5
y que no lo puedo esconder

|----------------------------------------------------------
|----------------------------------------------------------
|------6/7-7---------6/7-7---------6/7-7-------------------
|---7--6/7-7------7--6/7-7------7--6/7-7-----444--5555-----
|---7--4/5-5------7--4/5-5------7--4/5-5-----444--5555-----
|---5-------------5-------------5------------222--3333-----

A5
Hoy me di cuenta que
C#5
lo que sentia por ti
D5
era mas fuerte que
E
lo que sentias por mi
A5                       C#5
no fue tan dificil creer(tan dificil creer)
D5
que lo hago a diario
E5
y que no lo puedo esconder


A5        C#5         D5          E5
Cuando yo pienso en todo lo que dije
A5        C#5         D5          E5
Cuando yo pienso en todo lo que hiciste tu por mi

(Coro)
A5        C#5
Cuanto me cuesta
D5          E5
(tratar de olvidar)
A5        C#5
Cuanto me cuesta
D5          E5
(dejar de pensar)
A5        C#5
hoy es un dia
D5          E5
que razonaria
A5        C#5   D5          E5
solo pensaba tu y yo una ves

A5        C#5
Cuanto me cuesta
D5          E5
(tratar de olvidar)
A5        C#5
Cuanto me cuesta
D5          E5
(dejar de pensar)
A5        C#5
hoy es un dia
D5          E5
que razonaria
A5        C#5   D5          E5
solo pensaba tu y yo una ves


A5        C#5         D5          E5
Cuando yo pienso en todo lo que dije
A5        C#5         D5          E5
Cuando yo pienso en todo lo que hiciste tu por mi


A5        C#5
Cuanto me cuesta
D5          E5
(tratar de olvidar)
A5        C#5
Cuanto me cuesta
D5          E5
(dejar de pensar)
A5        C#5
hoy es un dia
D5          E5
que razonaria
A5        C#5   D5          E5
solo pensaba tu y yo una ves

A5        C#5
Cuanto me cuesta
D5          E5
(tratar de olvidar)
A5        C#5
Cuanto me cuesta
D5          E5
(dejar de pensar)
A5        C#5
hoy es un dia
D5          E5
que razonaria
A5        C#5   D5          E5
solo pensaba tu y yo una ves

|----------------------------------------------------------
|----------------------------------------------------------
|------6/7-7---------6/7-7---------6/7-7-------------------
|---7--6/7-7------7--6/7-7------7--6/7-7-----444--5555-----
|---7--4/5-5------7--4/5-5------7--4/5-5-----444--5555-----
|---5-------------5-------------5------------222--3333-----
Suggest correction
Give kudos to tab author, rate the tab!
1 2 3 4 5
comments
print report bad tab
guest
You may want to rate the tab now too:
select rating
Wanna post a correction for this tab? Suggest correction