Oops, an error
Loading. Please wait.

Unchained Melody bass

151 views 6 this week
no commentswrite comment
1 2 3 4 5
3 more votes to show rating
add to favorites
×
Save as Personal and add changes to this tab that will be seen only by you. Learn more ›
×
You can save this tab as Personal to edit and correct it or add notes. All changes will be seen only by you. Learn more »
launch autoscroll
font size
0
reset
guitar tuner
edit
Autoscroll
slow
fast
+/-
esc
set tempo
stop
Author
Difficulty
Tabbed by: 6METAL6BASSIST6
E-mail: petergriffinav@gmail.com

Tuning: EADG

Re-tabbed.

0:15

G|------------------------------------------------------------------------------------------------|
D|------------------------------------------------------------------------------------------------|
A|3-------------------3---3-----------------------0-------------------0---0-----------------------|
E|------------------------------------------------------------------------------------------------|

G|------------------------------------------------------------------------------------------------|
D|------------------------------------------------------------------------------------------------|
A|------------------------------------------------------------------------------------2-----------|
E|1-------------------1---1-----------------------3-------------------3---3-----------------------|

0:30

G|------------------------------------------------------------------------------------------------|
D|------------------------------------------------------------------------------------------------|
A|3-------------------3---3-----------------------0-------------------0---0-----------------------|
E|------------------------------------------------------------------------------------------------|

G|------------------------------------------------------------------------------------------------|
D|------------------------------------------------------------------------------------------------|
A|--------------------------------------------------------------------------------------------2---|
E|3-------------------3---3-----------------------3-------------------3---3-----------3-----------|

0:44

G|------------------------------------------------------------------------------------------------|
D|------------------------------------------------------------------------------------------------|
A|3-------------------3---3-----------------------0-------------------0---0-----------------------|
E|------------------------------------------------------------------------------------------------|

G|------------------------------------------------------------------------------------------------|
D|------------------------------------------------------------------------------------------------|
A|------------------------------------------------------------------------------------2-----------|
E|1-------------------1---1-----------------------3-------------------3---3-----------------------|

0:59

G|------------------------------------------------------------------------------------------------|
D|------------------------------------------------------------------------------------------------|
A|3-------------------3---3-----------------------0-------------------0---0-----------------------|
E|------------------------------------------------------------------------------------------------|

G|------------------------------------------------------------------------------------------------|
D|2-------------------2---2-----------------------5-------------------5---5-----------------------|
A|------------------------------------------------------------------------------------2-----------|
E|------------------------------------------------------------------------------------------------|

1:13

G|------------------------------------------------------------------------------------------------|
D|------------------------------------------------------------------------------------------------|
A|3-------------------3---3-----------------------2-------------------2---2-----------------------|
E|------------------------------------------------------------------------------------------------|

G|------------------------------------------------------------------------------------------------|
D|------------------------------------------------------------------------------------------------|
A|0-------------------0---0-----------------------------------------------------------------------|
E|------------------------------------------------3-------------------3---3-----------3-----------|

1:28

G|------------------------------------------------------------------------------------------------|
D|------------------------------------------------------------------------------------------------|
A|------------------------------------------------------------------------------------2-----------|
E|1-------------------1---1-----------------------3-------------------3---3-----------------------|

G|------------------------------------------------------------------------------------------------|
D|------------------------------------------------------------------------------------------------|
A|3-------------------3---3-----------------------3-------------------3---3-----------3---3---3---|
E|------------------------------------------------------------------------------------------------|

1:41

G|------------------------------------------------------------------------------------------------|
D|------------------------------------------------3-------------------3---1-------------------1---|
A|------------------------------------------------------------------------------------------------|
E|1-------------------1---3-------------------3---------------------------------------------------|

G|------------------------------------------------------------------------------------------------|
D|3-------------------3---5-----------------------------------------------------------------------|
A|------------------------------------------------3-------------------3---3-----------3-----------|
E|------------------------------------3-----------------------------------------------------------|

1:57

G|------------------------------------------------------------------------------------------------|
D|------------------------------------------------3-------------------3---1-------------------1---|
A|------------------------------------------------------------------------------------------------|
E|1-------------------1---3-------------------3---------------------------------------------------|

G|------------------------------------------------------------------------------------------------|
D|--------------------3---5-----------------------------------------------------------------------|
A|------------------------------------------------3-------3---3-------3---3-------3---3---3-------|
E|1-----------------------------------3-------------------------------------------------------3---|

2:11

G|------------------------------------------------------------------------------------------------|
D|------------------------------------------------------------------------------------------------|
A|3-------------------3---3-----------------------0-------------------0---0-----------------------|
E|------------------------------------------------------------------------------------------------|

G|------------------------------------------------------------------------------------------------|
D|------------------------------------------------------------------------------------------------|
A|------------------------------------------------------------------------------------2-----------|
E|1-------------------1---1-----------------------3-------------------3---3-----------------------|

2:26

G|------------------------------------------------------------------------------------------------|
D|------------------------------------------------------------------------------------------------|
A|3-------------------3---3-----------------------0-------------------0---0-----------------------|
E|------------------------------------------------------------------------------------------------|

G|------------------------------------------------------------------------------------------------|
D|------------------------------------------------------------------------------------------------|
A|------------------------------------------------------------------------------------2-----------|
E|3-------------------3---3-----------------------3-------------------3---3-----------------------|

2:39

G|------------------------------------------------------------------------------------------------|
D|------------------------------------------------------------------------------------------------|
A|3-------------------3---3-----------------------0-------------------0---0-----------------------|
E|------------------------------------------------------------------------------------------------|

G|------------------------------------------------------------------------------------------------|
D|------------------------------------------------------------------------------------------------|
A|------------------------------------------------------------------------------------2-----------|
E|1-------------------1---1-----------------------3-------------------3---3-----------------------|

2:55

G|------------------------------------------------------------------------------------------------|
D|------------------------------------------------------------------------------------------------|
A|3-------------------3---3-----------------------0-------------------0---0-----------------------|
E|------------------------------------------------------------------------------------------------|

G|------------------------------------------------------------------------------------------------|
D|2-------------------2---2-----------------------5-------------------5---------------------------|
A|------------------------------------------------------------------------------------2-----------|
E|------------------------------------------------------------------------3-----------------------|

3:08

G|------------------------------------------------------------------------------------------------|
D|------------------------------------------------------------------------------------------------|
A|3-------------------3---3-----------------------2-------------------2---2-----------------------|
E|------------------------------------------------------------------------------------------------|

G|------------------------------------------------------------------------------------------------|
D|------------------------------------------------------------------------------------------------|
A|0-------------------0---0-----------------------------------------------------------------------|
E|------------------------------------------------3-------------------3---3-----------------------|

3:24

G|------------------------------------------------------------------------------------------------|
D|------------------------------------------------------------------------------------------------|
A|------------------------------------------------------------------------------------------------|
E|1-------------------1---1---------------------------3-------------------------------------------|

G|----------------------------|
D|----------------------------|
A|----------------------------|
E|----------------------------|

G|------------------------------------------------------------------------------------------------|
D|------------------------------------------------------------------------------------------------|
A|3-------------------3---3-----------------------0-------------------0---0-----------0-----------|
E|------------------------------------------------------------------------------------------------|

G|------------------------------------------------|
D|------------------------------------------------|
A|------------------------------------------------|
E|1-----------------------1---3-------------------|

            
            
Suggest correction
Creating personal tab
Creating personal tab
You can edit any tab online and save it as your Personal.

You can edit, replace or remove any tab part or add personal notes – all changes will be seen only by you.

Personal tabs can be accessed anytime from any device, even offline.
Learn more »
Give kudos to tab author, rate the tab!
1 2 3 4 5
comments
print report bad tab
guest
You may want to rate the tab now too:
select rating
Wanna post a correction for this tab? Suggest correction