Oops, an error
Loading. Please wait.

Baltimore chords

25 views 3 this week
no commentswrite comment
1 2 3 4 5
x 3
add to favorites
×
Save as Personal and add changes to this tab that will be seen only by you. Learn more ›
×
You can save this tab as Personal to edit and correct it or add notes. All changes will be seen only by you. Learn more »
launch autoscroll
font size
0
reset
transpose
0
reset
display chords
guitar tuner
edit
Autoscroll
slow
fast
+/-
esc
set tempo
stop
About this tab version
All Chords are relative to the Capo on 1st fret. The chords aren't 100% over their target words but it's self explanatory. Was this info helpful? Yes No
Strumming
There is no strumming pattern for this song yet. and get +5 IQ
Lick in between Verses

e|-------------------------|
B|-------------------------|
G|-------------------------|
D|----2--------------------|
A|--3---3^-----------------|
E|-------------------------|


 | ^  half bend


[Chorus]


   A                        C   
My shirt is a ragged and my pants are torn
  F                       Bb
I aint found nothin I'm a-lookin' for 
      E                    A
And I wanna go back,    to Baltimore


  A                      C
I miss my dinghey on the chesapeak shore
    F                          Bb
The shrimp and the Shad-a-fish I adore
      E                    A
And I wanna go back,    to baltimore


[Verse]


  A
Well I left home about ten months ago
  D
Cause I was tired of my status quo
  E
I said "I'm sick of this dead head town
  A
I'm gonna cut out and have a look around"

e|-------------------------|
B|-------------------------|
G|-------------------------|
D|----2--------------------|
A|--3---3^-----------------|
E|-------------------------| x2

A
That was my first mistake

  A
At first I was livin real high on the hog
  D
Havin more fun than a pedigree dog
  E
'Fore long though my loot ran low
  A
And I said "oh well I'll be a hobo"

e|-------------------------|
B|-------------------------|
G|-------------------------|
D|----2--------------------|
A|--3---3^-----------------|
E|-------------------------| x2

  A 
That was my second mistake


[Chorus]


   A                        C   
My shirt is a ragged and my pants are torn
  F                       Bb
I aint found nothin I'm a-lookin' for 
      E                    A
And I wanna go back,    to Baltimore


  A                      C
I miss my dinghey on the chesapeak shore
    F                          Bb
The shrimp and the Shad-a-fish I adore
      E                    A
And I wanna go back,    to baltimore


[Verse]
A
Well I starved in Chicago and Kalamazoo
D
Went down to Atlanta and I starved there too
E
I met a lot a' girls but ya can't make time 
A
When you're knockin' on the back door beggin for a dime

e|-------------------------|
B|-------------------------|
G|-------------------------|
D|----2--------------------|
A|--3---3^-----------------|
E|-------------------------| x2

A
I know, I've tried 

A
I searched for my fortune as hard as I could
D
But ya can't make a fortune choppin' up wood
E
So I'll admit, though I lose a lot a' face
A
That my own back yard was a heck of a place

e|-------------------------|
B|-------------------------|
G|-------------------------|
D|----2--------------------|
A|--3---3^-----------------|
E|-------------------------| x2

A
Baltimore, Good ol' Baltimore


[Chorus]


   A                        C   
My shirt is a ragged and my pants are torn
  F                       Bb
I aint found nothin I'm a-lookin' for 
      E                    A
And I wanna go back,    to Baltimore


  A                      C
I miss my dinghey on the chesapeak shore
    F                          Bb
The shrimp and the Shad-a-fish I adore
      E                    A
And I wanna go back,    to baltimore

[Outro]

e|-------------------------|
B|-------------------------|
G|-------------------------|
D|----2--------------------|
A|--3---3^-----------------|
E|-------------------------| x4
A
Hitch me a train, Flag me down a Semi, Man I don't care, I gotta get back, 
Goin' to Baltimore, Headin back




            
            
Suggest correction
Creating personal tab
Creating personal tab
You can edit any tab online and save it as your Personal.

You can edit, replace or remove any tab part or add personal notes – all changes will be seen only by you.

Personal tabs can be accessed anytime from any device, even offline.
Learn more »
Give kudos to tab author, rate the tab!
1 2 3 4 5
comments
print report bad tab
guest
You may want to rate the tab now too:
select rating
Wanna post a correction for this tab? Suggest correction