Oops, an error
Loading. Please wait.

Marpasa Dawn Song To Chester Tab

10 views 1 this week
no commentswrite comment
1 2 3 4 5
3 more votes to show rating
add to favorites
launch autoscroll
font size
0
reset
how to read this tab
guitar tuner
Autoscroll
slow
fast
+/-
esc
set tempo
stop
Help us to improve Ultimate-Guitar.com Take our survey!
×
Author
Difficulty
intermediate
                             Marpasa Dawn / Song to Chester - Sonny Sharrock

On the album "Dance with me, Montana" (1982), track n°4.

Tabbed by Aoakaua
goldendawn04@hotmail.com

                  
                                    
E||-------------------------|---------------------------|
B||-------------------------|---------------------------|
G||-------------------------|---------------------------|
D||-------------------5-----|---------------------------|
A||-------------6--6--------|-----------------6--6--8---|
E||--3/-6--6--6-------------|--3-3-3--6--6--6-----------|


                                                                            
---------------------------|---------------------------|-------------------|
---------------------------|---------------------------|-------------------|
---------------------------|---------------------------|-------------------|
---------------------------|---------------------------|-------------------|
----------------5--5--8----|----------------5--8--6----|------4------------|
--4-4-4-6--6--6------------|--4-4-4-6--6--6------------|-------------------|


                                                                             
------------------------|---------------------|-----------------------------|
------------------------|---------------------|-----------------------------|
------------------------|---------------------|-----------------------------|
------------------------|--6----6----6--------|--6--8--10--8--6--6h8-6--5---|
-------------6--6----6--|---------------------|-----------------------------|
--8--8----8-------------|---------------------|-----------------------------|


                                                                               
-----------------------|-----------------------------|------------------------|
-----------------------|-----------------------------|------------------------|
-----------------------|-----------------------------|------------------------|
--5h6--5--5------------|--5--6--6h8--8-6--6-5--5-----|-------------5--5h6--6--|
-----------------------|--------------------------8--|----------8-------------|
-----------------------|-----------------------------|------------------------|


                                                                       
-----------------------|------------------------|---------------------|
-----------------------|------------------------|---------------------|
-----------------------|------------------------|---------------------|
--5--5----5------------|------------------------|--6----6----6--------|
-------8----6----------|-------------6--6----6--|---------------------|
-----------------------|--8--8----8-------------|---------------------|


                                                      
-----------------------------|-----------------------|
-----------------------------|-----------------------|
-----------------------------|-----------------------|
--6--8--10--8--6--6h8-6--5---|--5h6--5--5------------|
-----------------------------|-----------------------|
-----------------------------|-----------------------|


                                                                               
-----------------------------|------------------------|-----------------------|
-----------------------------|------------------------|-----------------------|
-----------------------------|------------------------|-----------------------|
--5--6--6h8--8-6--6-5--5-----|-------------5--5h6--6--|-----------------------|
--------------------------8--|----------8-------------|--8--5-----------------|
-----------------------------|------------------------|-------8--6-3----------|


Drum solo          Guitar solo                                                                    
------------------|-----------------------------|----------------------------|
------------------|-----------------------------|----------------------------|
------------------|-----------------------------|--------------7-------------|
------------------|-----------------------------|--8--------10----10-8--8----|
------------------|------------8------6--8--10--|-------------------------10-|
------------------|--6--8--10-----10------------|----------------------------|


                                                            
------------------------------|----------------------------|
------------------------------|----------------------------|
------------------------------|----------------------------|
------------------------------|----------------------------|
---10-8--6--6-5--5-6-3--1--3--|--5--3-3--1-------------8-6-|
------------------------------|-----------------6-8-10-----|


                                                                      
-------------------------------------|-------------------------------|
-------------------------------------|-------------------------------|
--------------------------8--7-------|-------------------------------|
-------------------6-8-10------10--8-|---10--8-----------------------|
------------6-8-10-------------------|---------10--10--10--10----10--|
--10-6-8-10--------------------------|-------------------------------|


                                                                  
--------------------------------|--------------------------------|
--------------------------------|--------------------------------|
--------------------------------|--------------------------------|
--8--8--------------------------|--------------------------------|
--------10--8-10-8--10-8--6--8--|--6--5--5-6-5--3-5-3------------|
--------------------------------|---------------------6-6-6-6-6--|


                                                         
-----------------------------|--------------------------|
------------------8--6-------|--------------------------|
------------------------8-10-|--8--7--8--7--------------|
-----------------------------|--------------5--5--5--5--|
-----------------------------|--------------------------|
--5--6--8--10--8-------------|--------------------------|


                                                              
----------------------------------|--------------------------|
----------------------------------|--------------------------|
----------------------------------|--------------------------|
--8----5-8-7-5-----5--------------|--------------3--------3--|
---------------6-8---8-6-5-6-5-3--|--5-----3--5-----5--6-----|
----------------------------------|-----6--------------------|


                                                           
--------------------------|-------------------------------|
--------------------------|-------------------------------|
--------------------5--8--|--7----7--5--3-5-3-------------|
--5--8--7--5--7--8--------|--------------------5-5-5h6p5--|
--------------------------|-------------------------------|
--------------------------|-------------------------------|


                                                        
-------------------------------|-----------------------|
-------------------------------|-----------------------|
-------------------------------|-----------------------|
--3-5-3------------------------|-----------------------|
---------5--5-5--3-5-3-1-3-----|--1----1--1----1--1----|
---------------------------0---|-----------------------|


                                             
------------------------|------------------||
------------------------|------------------||
------------------------|------------------||
------------------------|------------------||
--1--1----1--1----1--1--|------------------||
------------------------|------------------||


************************************

| /   slide up
| \   slide down
| h   hammer-on
| p   pull-off
| ~   vibrato
| +   harmonic
| x   Mute note
| b   Bend
| pb  Pre-bend
| br  Bend release
| pbr Pre-bend release
| brb Bend release bend

************************************
Suggest correction
Give kudos to tab author, rate the tab!
1 2 3 4 5
comments
print report bad tab
guest
You may want to rate the tab now too:
select rating
Wanna post a correction for this tab? Suggest correction