Oops, an error
Loading. Please wait.

Pare' Gozar Bass

34 views 3 this week
no commentswrite comment
1 2 3 4 5
3 more votes to show rating
add to favorites
×
Save as Personal and add changes to this tab that will be seen only by you. Learn more ›
×
You can save this tab as Personal to edit and correct it or add notes. All changes will be seen only by you. Learn more »
save as personal
new!
launch autoscroll
font size
0
reset
guitar tuner
Autoscroll
slow
fast
+/-
esc
set tempo
stop
Ta' que se revienta el higado..

G|--------------------------------------------|
D|--------------------------------------------|  x2
A|-5-5-5-5-5-5---47-47-47-47-47-47-47-47-5-5--|
E|--5-5-5-5-5-5-5--5--5--5--5--5--5--5----5-5-|

Y Sigue robando el alcalde..

G|--------------------------|
D|--------------------------| x3
A|-10--10--10--10---5-5-5-5-|
E|---10--10--10--10--5-5-5-5|

G|----------------------------------|
D|----------------------7-7---------|
A|-10--10--10--10---5-5--7-7-5-5-5-5|
E|---10--10--10--10--5-5------5-5-5-|

                      Guatita llena contento el corazon..

G|--------------------------------------------|
D|--------------------------------------------|
A|-5-5-5-5-5-5---47-47-47-47-47-47-47-47-5-5--|
E|--5-5-5-5-5-5-5--5--5--5--5--5--5--5----5-5-|

Y Sigue robando el alcalde..

G|--------------------------|
D|--------------------------| x3
A|-10--10--10--10---5-5-5-5-|
E|---10--10--10--10--5-5-5-5|

G|----------------------------------|
D|----------------------7-7---------|
A|-10--10--10--10---5-5--7-7-5-5-5-5|
E|---10--10--10--10--5-5------5-5-5-|

Fiesta en la municipalidad..

G|--------------------------------------------|
D|--------------------------------------------|  x2
A|-5-5-5-5-5-5---47-47-47-47-47-47-47-47-5-5--|
E|--5-5-5-5-5-5-5--5--5--5--5--5--5--5----5-5-|

Y Sigue robando el alcalde..

G|--------------------------|
D|--------------------------| x3
A|-10--10--10--10---5-5-5-5-|
E|---10--10--10--10--5-5-5-5|

G|----------------------------------|
D|----------------------7-7---------|
A|-10--10--10--10---5-5--7-7-5-5-5-5|
E|---10--10--10--10--5-5------5-5-5-|

pare' mentir pare' gozar hasta cuando tu cara de culo

G|----------|-----------|----------|
D|----------|-----------|----------|
A|-5--------|-5---------|-5---5----|
E|----------|-----------|----------|

vamo a aguantar..

G|----------------|------------------|--------
D|----------------|------------------|--------
A|----------------|----------------5-|--5-5-5-
E|-5--5--5-5--5--5|5--5--5-5--5--5---|--------
Suggest correction
Give kudos to tab author, rate the tab!
1 2 3 4 5
comments
print report bad tab
guest
Wanna post a correction for this tab? Suggest correction