Oops, an error
Loading. Please wait.

Sudateste Bass

35 views 1 this week
no commentswrite comment
1 2 3 4 5
3 more votes to show rating
add to favorites
×
Save as Personal and add changes to this tab that will be seen only by you. Learn more ›
×
You can save this tab as Personal to edit and correct it or add notes. All changes will be seen only by you. Learn more »
save as personal
new!
launch autoscroll
font size
0
reset
guitar tuner
Autoscroll
slow
fast
+/-
esc
set tempo
stop
Intro:

G|-------------|---------------------|
D|-----4-7-4-7-|---------------------|
A|--7/5---5----|--4-7-4-7-4-7--------|
E|-------------|-5---5---5----55-7-5-|

G|------------------|---------------------|
D|--4-7-4-7-4-7-4-7-|---------------------|
A|-5---5---5---5----|--4-7-4-7-4-7--------|
E|------------------|-5---5---5----55-7-5-|

Estrofa:

Creo en los que no tiene poder..

G|------------------|------------------------|
D|--4-7-4-7-4-7-4-7-|------------------------|
A|-5---5---5---5----|--4-7--------------4-5-6|
E|------------------|-5---55-7-5--5-0-5------|

Fue mi Calle..

G|---------------------|---------------------|
D|--6-9-6-9-6-9--------|---------------------|
A|-7---7---7---7-5-4---|--4-7-4-7-4-7--------|
E|-------------------7-|-5---5---5----55-7-5-|

Mucha veces..

G|------------------|--------------------|
D|--4-7-4-7-4-7-4-7-|--------------------|
A|-5---5---5---5----|--4-7-4-7-4-7-4-5-6-|
E|------------------|-5---5---5----------|

Y hoy voy a ver..


G|---------------------|---------------------|
D|--6-9-6-9-6-9--------|---------------------|
A|-7---7---7---7-5-4---|--4-7-4-7-4-7--------|
E|-------------------7-|-5---5---5----55-7-5-|

Coro:

Sudateste reggae..

G|----------------|---------------------|
D|----------------|---------------------| x3
A|-5-5---5---5----|--4-7-4-7-4-7--------|
E|--5-5-7-5-7-5-7-|-5---5---5----55-7-5-|

G|----------------|----------------------|
D|----------------|-----------6-9--------|
A|-5-5---5---5----|--4-7-4-5-7---7-5-4---|
E|--5-5-7-5-7-5-7-|-5---5--------------7-|

Puente:

G|---------------------------------------|
D|---------------------------------------|
A|-5-5-5-5-5-5-5-5-5-5-5-5-5-5-5-5-5-5-5-|
E|--5-5-5-5-5-5-5-5-5-5-5-5-5-5----------|

Pre-Estrofa:

                   No paso na'...

G|------------------|---------------------|
D|--4-7-4-7-4-7-4-7-|---------------------|
A|-5---5---5---5----|--4-7-4-7-4-7--------|
E|------------------|-5---5---5----55-7-5-|

Y me gusta mirar pal cerro

G|------------------|----------------------|
D|--4-7-4-7-4-7-4-7-|-----------6-9--------|
A|-5---5---5---5----|--4-7-4-5-7---7-5-4---|
E|------------------|-5---5--------------7-|

Estrofa

Coro

Final:

G|------------------|---------------------|
D|--4-7-4-7-4-7-4-7-|---------------------|
A|-5---5---5---5----|--4-7-4-7-4-7--------|
E|------------------|-5---5---5----55-7-5-|

G|------------------|----------------------|
D|--4-7-4-7-4-7-4-7-|-----------6-9--------|
A|-5---5---5---5----|--4-7-4-5-7---7-5-4---|
E|------------------|-5---5--------------7-|

G|----------|
D|----------|
A|----------|
E|-5--5-5-5-|
Suggest correction
Give kudos to tab author, rate the tab!
1 2 3 4 5
comments
print report bad tab
guest
Wanna post a correction for this tab? Suggest correction