Oops, an error
Loading. Please wait.

Perfume De Gardenias Bass

168 views 1 this week
no commentswrite comment
1 2 3 4 5
3 more votes to show rating
add to favorites
launch autoscroll
font size
0
reset
guitar tuner
×
Best way to learn
"Perfume De Gardenias"
Autoscroll
slow
fast
+/-
esc
set tempo
stop
Perfume de gardenias
Intro
G[----------------------------------------------------------------------]
D[------------------------------2---2-2---0-----------------------------]
A[--------------0-1-2----2-2------------------3---3-3---3---------------]
E[---3----3-3-----------------------------------------------------------]

G[----------------------------------------------------------------------]
D[----------------------------------------------------------------------]
A[--------------------0----0-5---5--------------------------------------]
E[---3----3-3-----3-----------------3-----3--3--3-----(0)---------------]

coro
perfume de...
G[----------------------------------------------------------------------]
D[------------------------------2---2-2---0-----------------------------]
A[--------------0-1-2----2-2------------------3---3-3---3---------------]
E[---3----3-3-----------------------------------------------------------]

Bellísimos...
G[----------------------------------------------------------------------]
D[----------------------------------------------------------------------]
A[----------------------0--0-0--0------5--5-5--5------------------------]
E[---3----3-3---3-------------------------------------(3)---------------]

Tu tienes una?
G[----------------------------------------------------------------------]
D[------------------------------2---2-2---0-----------------------------]
A[--------------0-1-2----2-2------------------3---3-3---3---------------]
E[---3----3-3-----------------------------------------------------------]

Tus cabellos...
G[----------------------------------------------------------------------]
D[----------------------------------------------------------------------]
A[----------------------0--0-0--0------5--5-5--5------------------------]
E[---3----3-3---3-------------------------------------(3)---------------]

Tu cuerpo es...
G[----------------------------------------------------------------------]
D[----2--2-2--2----------------2--2-2--2--------------------------------]
A[----------------2--2-2--2----------------5--5-5--5--------------------]
E[-------------------------------------------------------3--3-3--3------]

Cuando te ven...
G[----------------------------------------------------------------------]
D[--------------------2--2-2--2-----------------------------------------]
A[----2--2-2--2--------------------2--2-2--2----------------------------]
E[----------------------------------------------------------------------]


y asi si se repite toda la cancion


si tienes duda sobre el ritmo, agreguen escoses_parlanchin@
Suggest correction
Give kudos to tab author, rate the tab!
1 2 3 4 5
comments
print report bad tab
guest
You may want to rate the tab now too:
select rating
Wanna post a correction for this tab? Suggest correction