Oops, an error
Loading. Please wait.

Fuck The Shit tab

version 1
version 1

Whole song

Interactive

7,424 views 12 this week
5 commentsread comments
1 2 3 4 5
x 10
add to favorites
×
Save as Personal and add changes to this tab that will be seen only by you. Learn more ›
×
You can save this tab as Personal to edit and correct it or add notes. All changes will be seen only by you. Learn more »
launch autoscroll
font size
0
reset
how to read this tab
guitar tuner
edit
Autoscroll
slow
fast
+/-
esc
set tempo
stop
Song: Fuck The Shit
Album: Sons Of Butcher
Band: Sons Of Butcher
Tabbed By: Masterbasser36


Main Riff (Repeated)
e|--------------------------|
B|--------------------------| 
G|-8------------------------|
D|-8--8-10--11--11----------|
A|-6--8-10--11--11--------4-|
E|----6-8---9---9---0-2-4---|


Bridge                                                                  x2
|----------------------------------------------------------------------|
|----------------------------------------------------------------------|
|-8--8-------------------------------8-8-------------------------------|
|-8--8--10-10-10--11--11-11-11--4-4--8-8--10-10-10--11--10-11-10--8--8-|
|-6--6--10-10-10--11--11-11-11--4-4--6-6--10-10-10--11--10-11-10--8--8-|
|-------8--8--8---9---9--9--9---2-2-------8--8--8---9---8--9--8---6--6-|


Main Riff (Repeated)
e|--------------------------|
B|--------------------------| 
G|-8------------------------|
D|-8--8-10--11--11----------|
A|-6--8-10--11--11--------4-|
E|----6-8---9---9---0-2-4---|


Ending
e|-----------|
B|-----------| 
G|-8-8-8-8-8-|
D|-8-8-8-8-8-|
A|-6-6-6-6-6-|
E|-----------|

Catchy as heck,
Please Rate!

            
            
Suggest correction
Creating personal tab
Creating personal tab
You can edit any tab online and save it as your Personal.

You can edit, replace or remove any tab part or add personal notes – all changes will be seen only by you.

Personal tabs can be accessed anytime from any device, even offline.
Learn more »
comments
print report bad tab
5 comments total. Showing first comments.
0 reply
Empo 239 Nov 28, 2006 07:58 AM

Fuck the shit...

0 reply
Masterbasser36 651 Nov 28, 2006 01:24 PM

Fuck the ****ing shit ****! =D

0 reply
SayDie123 10 Feb 03, 2007 04:22 PM

****! the! shit! ****! yeah! XD so damn awesome!! :D

guest
You may want to rate the tab now too:
select rating
Wanna post a correction for this tab? Suggest correction