Oops, an error
Loading. Please wait.

Els Teus Somnis Tab

147 views 6 this week
no commentswrite comment
1 2 3 4 5
2 more votes to show rating
add to favorites
launch autoscroll
font size
0
reset
how to read this tab
guitar tuner
×
Best way to learn
"Els Teus Somnis"
Autoscroll
slow
fast
+/-
esc
set tempo
stop
Soy Nico Mendieta
esta cancion va dedicada a alguien,
especial que me enseñó
esta canción, suerte


e|-----4-------4-------5-------5-------4-------4---------
B|---5---5---5---5---5---5---5---5---5---5---5---5-------
G|-4-------4-------4-------4-------4-------4-------------
D|-------------------------------------------------------
A|-------------------------------------------------------
E|-------------------------------------------------------

e|-----2-------2-----------------------------------------
B|---5---5---5---5---------------------------------------
G|-4-------4-------4-------------------------------------
D|-------------------------------------------------------
A|-------------------------------------------------------
E|-------------------------------------------------------

Enllà, més lluny de les estrelles, a l'altra cara del mirall,
On tot és més senzill d'entendre, la porta espera oberta.


e|---4xxx------5xxx-----4xxx----2xxx---------------------
B|---5xxx------5xxx-----5xxx----5xxx---------------------
G|---4xxx------4xxx-----4xxx----4xxx---------------------
D|-------------------------------------------------------
A|-------------------------------------------------------
E|-------------------------------------------------------

Un pas i ja el teu cor desperta, un salt i ja no tornaràs,
Comptant la màgia és la primera, seguint...

Distorción
e|-------------------------------------------------------
B|-------------------------------------------------------
G|---7xxx------------------------------------------------
D|---7xxx---7xxx---9xxx---5xxx---------------------------
A|---5xxx---7xxx---9xxx---5xxx---------------------------
E|----------5xxx---7xxx---3xxx---------------------------

Els teus somnis t'estan esperant.
Vés, no dubtis més, abraça'ls.

e|-----4-------4-------5-------5-------4-------4---------
B|---5---5---5---5---5---5---5---5---5---5---5---5-------
G|-4-------4-------4-------4-------4-------4-------------
D|-------------------------------------------------------
A|-------------------------------------------------------
E|-------------------------------------------------------

e|-----2-------2-----------------------------------------
B|---5---5---5---5---------------------------------------
G|-4-------4-------4-------------------------------------
D|-------------------------------------------------------
A|-------------------------------------------------------
E|-------------------------------------------------------

No el veus? a poc a poc s'acosta, no ho sents?
el tens al teu costat.
L'amor té totes les respostes.

Distorción
e|-------------------------------------------------------
B|-------------------------------------------------------
G|---7xxx------------------------------------------------
D|---7xxx---7xxx---9xxx---5xxx---------------------------
A|---5xxx---7xxx---9xxx---5xxx---------------------------
E|----------5xxx---7xxx---3xxx---------------------------

És el teu somni, t'estava esperant.
Vés no dubtis més, s'escapa.
Lluita pels teus somnis, t'estan esperant,
Fes que siguin certs, abraça'ls.

e|---4xxx------5xxx-----4xxx----2xxx---------------------
B|---5xxx------5xxx-----5xxx----5xxx---------------------
G|---4xxx------4xxx-----4xxx----4xxx---------------------
D|-------------------------------------------------------
A|-------------------------------------------------------
E|-------------------------------------------------------

El vent escampa les fulles, el temps arriba i se'n va
Mai no em demanis la lluna, ningú la pot agafar.
La vida cau i la pluja, el sol ens pot eixugar,
Sempre canvia la lluna, pren el que et vulgui donar.

Distorción
e|-------------------------------------------------------
B|-------------------------------------------------------
G|---7xxx------------------------------------------------
D|---7xxx---7xxx---9xxx---5xxx---------------------------
A|---5xxx---7xxx---9xxx---5xxx---------------------------
E|----------5xxx---7xxx---3xxx---------------------------

Pren els teus somnis, t'estan esperant.
Vés no dubtis més, s'escapen.
Fes que no s'ensorrin, vés-los a buscar,
Fes que siguin teus, abraça'ls.
Lluita pels teus somnis, t'estan esperant,
Fem que siguin certs, abraça'ls.
Fes que no s'ensorrin, vés-los a buscar,
Fes que siguin certs, abraça'ls.

e|-----4-------4-------5-------5-------4-------4---------
B|---5---5---5---5---5---5---5---5---5---5---5---5-------
G|-4-------4-------4-------4-------4-------4-------------
D|-------------------------------------------------------
A|-------------------------------------------------------
E|-------------------------------------------------------

e|-----2-------2-----------------------------------------
B|---5---5---5---5---------------------------------------
G|-4-------4-------4-------------------------------------
D|-------------------------------------------------------
A|-------------------------------------------------------
E|-------------------------------------------------------

Mirant de tant en tant enrere, els peus a terra, el cor volant,
Endins el sentiment és tendre, volem seguir somniant.


----------------------------------------------------

"ELS TEUS SOMNIS"

Enllà, més lluny de les estrelles, a l'altra cara del mirall,
On tot és més senzill d'entendre, la porta espera oberta.

Un pas i ja el teu cor desperta, un salt i ja no tornaràs,
Comptant la màgia és la primera, seguint...

Els teus somnis t'estan esperant.
Vés, no dubtis més, abraça'ls.

No el veus? a poc a poc s'acosta, no ho sents?
el tens al teu costat.
L'amor té totes les respostes.

És el teu somni, t'estava esperant.
Vés no dubtis més, s'escapa.
Lluita pels teus somnis, t'estan esperant,
Fes que siguin certs, abraça'ls.

El vent escampa les fulles, el temps arriba i se'n va
Mai no em demanis la lluna, ningú la pot agafar.
La vida cau i la pluja, el sol ens pot eixugar,
Sempre canvia la lluna, pren el que et vulgui donar.

Pren els teus somnis, t'estan esperant.
Vés no dubtis més, s'escapen.
Fes que no s'ensorrin, vés-los a buscar,
Fes que siguin teus, abraça'ls.
Lluita pels teus somnis, t'estan esperant,
Fem que siguin certs, abraça'ls.
Fes que no s'ensorrin, vés-los a buscar,
Fes que siguin certs, abraça'ls.

Mirant de tant en tant enrere, els peus a terra, el cor volant,
Endins el sentiment és tendre, volem seguir somniant.
Suggest correction
Give kudos to tab author, rate the tab!
1 2 3 4 5
comments
print report bad tab
guest
You may want to rate the tab now too:
select rating
Wanna post a correction for this tab? Suggest correction