Oops, an error
Loading. Please wait.

The Sea chords

by Sophia
103 views 3 this week
no commentswrite comment
1 2 3 4 5
3 more votes to show rating
add to favorites
×
Save as Personal and add changes to this tab that will be seen only by you. Learn more ›
×
You can save this tab as Personal to edit and correct it or add notes. All changes will be seen only by you. Learn more »
launch autoscroll
font size
0
reset
transpose
0
reset
simplify chords
display chords
guitar tuner
edit
Autoscroll
slow
fast
+/-
esc
set tempo
stop
Author
Difficulty
About this tab version
Only tab of this song as far as I can see. Was this info helpful? Yes No
Strumming
There is no strumming pattern for this song yet. and get +5 IQ
The Sea - Sophia
Album - De Nachten

Note 1: This sad introspective song has only a few simple chords but the arpeggio at the beginning can be 
a bit challenging to master the embellishments of the chords. 
Note 2: preferably play with two guitars or 1 guitar and a piano

Base chords intro 
Am    x02210
E     022100
G6    32x030
Dsus2 xx0230
Fmaj7 xx3210
C     x32010

[Intro]

   Am                                      E
e|-----0---------0---------0---------0---------0---------0---------0---------0-----
B|-------1-0-------1-0-------1-0-------1-0-------1-0-------1-0-------1-0-------1-0-
G|-2-2-------2-2-------2-2-------2-2-------1-1-------1-1-------1-1-------1-1-------
D|-----------------------------------------2---------2---------2---------2---------
A|-0---------0---------0---------0-------------------------------------------------
E|---------------------------------------------------------------------------------

   G6                                       Dsus2
e|-----0---------0----------0---------0---------0---------0---------0---------0-----
B|-------1-3--------1-3-------1-3-------1-3-------1-3-------1-3-------1-3-------1-3-
G|-0-0-------0-0--------0-0-------0-0-------2-2-------2-2-------2-2-------2-2-------
D|------------------------------------------0---------0---------0---------0---------
A|----------------------------------------------------------------------------------
E|-3---------3----------3---------3-------------------------------------------------

   Fmaj7                                    Am
e|-----0---------0----------0---------0---------0---------0---------0---------0-----
B|-------1-3--------1-3-------1-3-------1-3-------1-3-------1-3-------1-3-------1-3-
G|-2-2-------2-2--------2-2-------2-2-------2-2-------2-2-------2-2-------2-2-------
D|-3---------3----------3---------3-------------------------------------------------
A|------------------------------------------0---------0---------0---------0---------
E|----------------------------------------------------------------------------------

   Fmaj7                                    C (Queue in strumming)
e|-----0---------0----------0---------0---------0---------0---------0---------0-----
B|-------1-3--------1-3-------1-3-------1-3-------1-3-------1-3-------1-3-------1-3-
G|-2-2-------2-2--------2-2-------2-2-------0-0-------0-0-------0-0-------0-0-------
D|-3---------3----------3---------3-------------------------------------------------
A|------------------------------------------3---------3---------3---------3---------
E|----------------------------------------------------------------------------------

   G6                                       
e|-----0---------0----------0---------0-----
B|-------1-3--------1-3-------1-3-------1-3-
G|-0-0-------0-0--------0-0-------0-0-------
D|------------------------------------------
A|------------------------------------------
E|-3---------3----------3---------3---------

Repeat (with strumming)

[verse]
Am
Come to the sea my darling
E
Come to the sea my love
G
Follow me my angel
         Dsus2
From the darkness of our world
F
Follow me my darling
Am
Follow me my love

F
Come with me my angel
C G
Far  
     Am  E
from  our world
     G   Dsus2      F Am F C G
From our world

Am
Come with me my darling
E
Come to the sea my love
G
Come with me my angel
         Dsus2
From the darkness of our world

F
Come with me my baby
Am
Come with me my love
F
Come with me my darling
C G   Am E
Far...
     G   Dsus  F Am F C G Am E G Dsus2
From our world...


F
Come to the sea my darling
Am
Come to the sea my love
F
Come with me my angel
C G
Far 
Am       E
From our world
G         Dsus2 
From our world

[fade] 
F Am F C G

            
            
Suggest correction
Creating personal tab
Creating personal tab
You can edit any tab online and save it as your Personal.

You can edit, replace or remove any tab part or add personal notes – all changes will be seen only by you.

Personal tabs can be accessed anytime from any device, even offline.
Learn more »
Give kudos to tab author, rate the tab!
1 2 3 4 5
comments
print report bad tab
guest
You may want to rate the tab now too:
select rating
Wanna post a correction for this tab? Suggest correction