Oops, an error
Loading. Please wait.

The Deer And The Wolf bass

112 views 1 this week
no commentswrite comment
1 2 3 4 5
x 3
add to favorites
×
Save as Personal and add changes to this tab that will be seen only by you. Learn more ›
×
You can save this tab as Personal to edit and correct it or add notes. All changes will be seen only by you. Learn more »
launch autoscroll
font size
0
reset
guitar tuner
edit
Autoscroll
slow
fast
+/-
esc
set tempo
stop
Author
Difficulty
--------------------------------------------------------------------------
                                    Artist - Sophie Ellis Bextor
                                   ******************************
                                    Song - The Deer And The Wolf   
                                   ******************************
                                      Album - Wanderlust (2014)  
                                     ***************************
                                        Tabbed By - Ayreon77
                                       **********************
--------------------------------------------------------------------------
Tuning = Standard



00:07
VERSE 1
********
  Oh the deer and the wolf............
G|-------------|--------|----------|--------|-------|------------------|-------|-------|---------|----------|
D|-------------|--------|-9--------|--------|-------|------------------|-------|-------|---------|----------|
A|---7-7--7--7-|-7-7--7-|----------|--------|---7-7-|------------------|--s----|-7-7--7|---7-7--7|-9-9-11-11|
E|-7-----------|--------|---7-7--7-|-7-7--7-|-9-----|-5-5--5--0-5-5--5-|-7\9-7-|-------|-7-------|----------|

  One waits in the dark
G|-------------|--------|----------|--------|-------|------------------|-------|--------|---------|---------|
D|-------------|--------|-9--------|--------|-------|------------------|-------|--------|---------|---------|
A|---7-7--7--7-|-7-7--7-|----------|--------|---7-7-|------------------|--s----|-7-7--7-|---7-7--9|-11-11-11|
E|-7-----------|--------|---7-7--7-|-7-7--7-|-9-----|-5-5--5--0-5-5--5-|-7\9-7-|--------|-7-------|---------|


--------------------------
00:34
CHORUS
*******
  Come away, come away darling
G|-------------|------------|----------|--------|---------|
D|-9--9--------|------------|----------|--------|---------|
A|------9-9----|------------|----------|--------|--s------|
E|----------77-|-7-9-7-9-55-|-5--0-5-0-|-5-5--5-|-7\9-9-9-|

  See ourselves reflected in a river 
G|--------------|-----------|--------------------------------|
D|--------------|-----------|--------------------------------|
A|-----9-9-9----|-----------|---------------s------6-6-6-6-6-|
E|-7-7-------77-|-7-9-7-9-7-|-4--4-4-4-4-4-4\7-7-7-----------|

  On and on and on my love
G|--------------------|----------------------|------------------------|----------|-----|-------|----|-------|
D|--------------------|----------------------|------------------------|----------|-----|-------|----|-------|
A|--------------------|-4--4-4-4--4-4--4-----|------------------------|-4--4-4-7-|-7-4-|-4-7-7-|-7-7|-7--s--|
E|-5--5-5--5-5--5-4-4-|------------------4-4-|-5--5-5-5--5-5-5--5-4-4-|----------|-----|-------|----|---7\-0|

           When we're chasing the moon
G|------------|----------------------|--------------------------|
D|------------|----------------------|--------------------------|
A|------------|-4--4-4-4--4-4--4-----|--------------------------|
E|-0-0--0-7-7-|------------------4-4-|-5--5-5-5--5-5-5--5-7-7-7-|


01:12
G|-------------|--------|
D|-------------|--------|
A|---7-7--7--7-|-7-7--7-|
E|-7-----------|--------|


--------------------------
01:15
VERSE 2
********
  Oh the deer and the wolf..............
G|-----9-9-8-8-----|-----9-9-8-8-----|-----9-9-8-8-----|-----9-9-8-8-----|
D|-------------9-9-|-------------9-9-|-------------9-9-|-------------9-9-|
A|-7-7-------------|-7-7-------------|-----------------|-----------------|
E|-----------------|-----------------|-7-7-------------|-7-7-------------|

  Cause they need each other.................
G|-----9-9-8-8-----|-----9-9-8-8-----|-----9-9-8-8-----|-----9-9-8-8-----|
D|-------------9-9-|-------------9-9-|-------------9-9-|-------------9-9-|
A|-0-0-------------|-0-0-------------|-7-7-------------|-7-7-------------|
E|-----------------|-----------------|-----------------|-----------------|

  One takes the grain (takes the grain).................
G|-----9-9-8-8-----|-----9-9-8-8-----|-----9-9-8-8-----|-----9-9-8-8-----|
D|-------------9-9-|-------------9-9-|-------------9-9-|-------------9-9-|
A|-7-7-------------|-7-7-------------|-----------------|-----------------|
E|-----------------|-----------------|-7-7-------------|-7-7-------------|

  Such a gentile eye...............
G|-----9-9-8-8-----|-----9-9-8-8-----|-----9-9-8-8-----|-----9-9-8-8-----|
D|-------------9-9-|-------------9-9-|-------------9-9-|-------------9-9-|
A|-0-0-------------|-0-0-------------|-7-7-------------|-7-7-------------|
E|-----------------|-----------------|-----------------|-----------------|


--------------------------
01:43
CHORUS
*******
  Come away, come away darling
G|-------------|------------|----------|--------|---------|
D|-9--9--------|------------|----------|--------|---------|
A|------9-9----|------------|----------|--------|--s------|
E|----------77-|-7-9-7-9-55-|-5--0-5-0-|-5-5--5-|-7\9-9-9-|

  See ourselves reflected in a river 
G|--------------|-----------|--------------------------------|
D|--------------|-----------|--------------------------------|
A|-----9-9-9----|-----------|---------------s------6-6-6-6-6-|
E|-7-7-------77-|-7-9-7-9-7-|-4--4-4-4-4-4-4\7-7-7-----------|

  On and on and on my love
G|--------------------|----------------------|------------------------|----------|-----|-------|----|-------|
D|--------------------|----------------------|------------------------|----------|-----|-------|----|-------|
A|--------------------|-4--4-4-4--4-4--4-----|------------------------|-4--4-4-7-|-7-4-|-4-7-7-|-7-7|-7--s--|
E|-5--5-5--5-5--5-4-4-|------------------4-4-|-5--5-5-5--5-5-5--5-4-4-|----------|-----|-------|----|---7\-0|

           When we're chasing the moon
G|------------|----------------------|--------------------------|
D|------------|----------------------|--------------------------|
A|------------|-4--4-4-4--4-4--4-----|--------------------------|
E|-0-0--0-7-7-|------------------4-4-|-5--5-5-5--5-5-5--5-7-7-7-|


--------------------------
02:21
  Ooooooo Oooooooo
G|---------------|---------------|---------------|--------------|---------------|---------------|
D|---------------|---------------|---------------|--------------|---------------|---------------|
A|-4-4-4---------|-4-4-4-6-6-6-7-|-------6-6-6-7-|-------6--6-7-|---------------|-------6-6-6-7-|
E|-------4-4-4-4-|---------------|-4-4-4---------|-4-4-4--------|-4-4-4-0-0-0-0-|-4-4-4---------|


G|----------------|----------------|
D|----------------|----------------|
A|-7-7-7--7-7-7-7-|-7-7-7--6-6-7-6-|
E|----------------|----------------|

  Ooooooo Oooooooo
G|---------------|---------------|---------------|--------------|---------------|---------------|
D|---------------|---------------|---------------|--------------|---------------|---------------|
A|-4-4-4---------|-4-4-4-6-6-6-7-|-------6-6-6-7-|-------6--6-7-|---------------|-------6-6-6-7-|
E|-------4-4-4-4-|---------------|-4-4-4---------|-4-4-4--------|-4-4-4-0-0-0-0-|-4-4-4---------|


G|---------|---------|---------|---------|
D|---------|---------|---------|---------|
A|-7-7-7-7-|-7-7-7-7-|-7-7-7-7-|-7-7-7-7-|
E|---------|---------|---------|---------|


--------------------------
02:47
CHORUS  - No Bass at the beginning
*******

03:02
  On and on and on my love
G|--------------------|----------------------|------------------------|----------|-----|-------|----|-------|
D|--------------------|----------------------|------------------------|----------|-----|-------|----|-------|
A|--------------------|-4--4-4-4--4-4--4-----|------------------------|-4--4-4-7-|-7-4-|-4-7-7-|-7-7|-7--s--|
E|-5--5-5--5-5--5-4-4-|------------------4-4-|-5--5-5-5--5-5-5--5-4-4-|----------|-----|-------|----|---7\-0|

           When we're chasing the moon
G|------------|----------------------|--------------------------|
D|------------|----------------------|--------------------------|
A|------------|-4--4-4-4--4-4--4-----|--------------------------|
E|-0-0--0-7-7-|------------------4-4-|-5--5-5-5--5-5-5--5-7-7-7-|

OUTRO
******
G|----------|----------|----------|----------|---|
D|------7-7-|----------|------7-7-|------7-7-|---|
A|----s-----|----s-7-7-|----s-----|----s-----|---|
E|-5-5\-----|-5-5\-----|-5-5\-----|-5-5\-----|-0-|



ENJOY............

            
            
Suggest correction
Creating personal tab
Creating personal tab
You can edit any tab online and save it as your Personal.

You can edit, replace or remove any tab part or add personal notes – all changes will be seen only by you.

Personal tabs can be accessed anytime from any device, even offline.
Learn more »
Give kudos to tab author, rate the tab!
1 2 3 4 5
comments
print report bad tab
guest
You may want to rate the tab now too:
select rating
Wanna post a correction for this tab? Suggest correction