Oops, an error
Loading. Please wait.

Ciel Bleu Tab

373 views 1 this week
2 commentsread comments
1 2 3 4 5
3 more votes to show rating
add to favorites
launch autoscroll
font size
0
reset
how to read this tab
guitar tuner
×
Best way to learn
"Ciel Bleu"
Autoscroll
slow
fast
+/-
esc
set tempo
stop
Author
Difficulty
About this tab version
Dites moi s'il y a des fautes afin de modifier merci. Was this info helpful? Yes No
[Intro]

e|-------------------------------------------|
B|-------------------------------------------|
G|-------------------------------------------|
D|--------------5---5/3--3--3/1----1/3----3--|
A|---------3---------------------------------|
E|----1--------------------------------------|

e|--------------------------------------------------------------------------------------|
B|--------------------------------------------------------------------------------------|
G|--------------------------------------------------------------------------------------|
D|---------------10---------------10/12-----------12------------------------------------|
A|--------------------8----10--------------10-------------------------------------------|
E|----3----4----------------------------------------------------------------------------|


e|--------------------------------------------|
B|--------------------------------------------|
G|--------------------------------------------|
D|---------------5-----5/8 8--8---8/5----5/3--|
A|---------3----------------------------------|
E|---1----------------------------------------|

e|--------------------------------------------------------------------------------------|
B|--------------------------------------------------------------------------------------|
G|--------------------------------------------------------------------------------------|
D|---------------10-----------------10/12---------12------------------------------------|
A|---------------------8------10------------10------------------------------------------|
E|---3-----4----------------------------------------------------------------------------|

 
************************************

| /  Slide up 

************************************
Suggest correction
Give kudos to tab author, rate the tab!
1 2 3 4 5
comments
print report bad tab
2 comments total.
0 reply
novacharpe 10 Oct 21, 2016 03:17 PM

Ouai y'a une de toutes petites fautes,déjà la corde de Mi est plus basse que les autres c'est pareil que pour clutch mais en légerement en dessous et pour la 1ère partie en reécoutant j'aurais plus dis comme as,aprés c'est que mon avis
|-------------------------------------------|
B|-------------------------------------------|
G|-------------------------------------------|
D|--------------5---5/3--3--3/1----1/3----3--|
A|---------3-------------------------------2-|
E|----0--------------------------------------|

e|----------------------------------------------------------------------|
B|----------------------------------------------------------------------|
G|----------------------------------------------------------------------|
D|---------10------12------12-------------------------------------------|
A|------------8/10-----10-----------------------------------------------|
E|--7--8----------------------------------------------------------------|

Pour le Mi c'est ejtre C# et C voila,aprés pour ça c'est a vous de tatonner,mais normalement la note est juste par rapport au titre,voila.Sinon ta tablature est parfaite,j'aurais jamais trouvé sans toi,bravo ;).Aprés chacun ses petits changements de notes.

0 reply
antoinegeryfr 16 Oct 22, 2016 06:13 AM

Ah ben ouai pourquoi pas , tu sais j'ai fait ça à l'oreille (pas absolu aha) mais t'as version est pas mal aussi ! Et je te remercie c'est cool :)

guest
You may want to rate the tab now too:
select rating
Wanna post a correction for this tab? Suggest correction