Oops, an error
Loading. Please wait.

Hello Hello tab

1,304 views 3 this week
no commentswrite comment
1 2 3 4 5
1 last vote to show rating
add to favorites
×
Save as Personal and add changes to this tab that will be seen only by you. Learn more ›
×
You can save this tab as Personal to edit and correct it or add notes. All changes will be seen only by you. Learn more »
launch autoscroll
font size
0
reset
how to read this tab
guitar tuner
edit
Autoscroll
slow
fast
+/-
esc
set tempo
stop
Author
http://www.sopwithcamel.com/Trips.html

[B C Am F G7 G]
E-----------------------1--------------|
B-----------------------0--------------|
G--0--h2--p0------------0--------------|
D-------------1--2------0-(G7)---------|
A-------------------3---2--------------|
E-----------------------3--------------|
[C]Hello hel[F]lo
[C]I like your [F]smile,
[C]Hello hel[F]lo
[C]Shall we talk a[F]while?
[G]Wouldn't you [Am]like some of [Am/D]my tange[D7]rine?
[C]I know I'll [G7]never treat you [C]mean.
E---------------------------------------|
B---------------------------------------|
G--0--h2--p0----------------------------|
D-------------1--2----------------------|
A-------------------3------0--1---------|
E-----------------------3---------------|
[B]Never knew [Em]how I'd *meet* you,
[B]Didn't know [Am]how to *greet* you.
[G]When I saw you [C]look that way,
[F]I knew I [D7]had to say

[C]Hello hel[F]lo
[C][F][C][F][C][F]
[G][Am][Am/D][D7][C][G7][C]
E---------------|
B---------------|
G---------------|
D---------------|
A-----0--1------|
E--3------------|
[B Em...]
Always longed to say I *love* you,
Always been too high above you.
Now I'm not so far away,
Now at last I can say,

Hello hello
Hello hello
You've got pretty *hair,*
Hello hello,
can'tcha tell I care?
Would you like some of my tangerine?
[C]I know I'll [G7]never treat you [C]mean Oh [A7]no
[F]I know I'll [D7]never treat you [C]mean

E--3/8--7--6--5--4--3--2--1-----------------------------0--------|
B-------------------------------------------------------1--------|
G-------------------------------------------------------3--------|
D----------------------------5--5--5--1--2--------------2--------|
A-------------------------------------------3-----------3--(C7)--|
E----------------------------------------------3--5--3--0--------|
Suggest correction
Creating personal tab
Creating personal tab
You can edit any tab online and save it as your Personal.

You can edit, replace or remove any tab part or add personal notes – all changes will be seen only by you.

Personal tabs can be accessed anytime from any device, even offline.
Learn more »
Give kudos to tab author, rate the tab!
1 2 3 4 5
comments
print report bad tab
guest
You may want to rate the tab now too:
select rating
Wanna post a correction for this tab? Suggest correction