Oops, an error
Loading. Please wait.

Las Cosas Del Querer Bass Tab

14 views 1 this week
no commentswrite comment
1 2 3 4 5
3 more votes to show rating
add to favorites
launch autoscroll
font size
0
reset
guitar tuner
×
Best way to learn
"Las Cosas Del Querer"
Autoscroll
slow
fast
+/-
esc
set tempo
stop
(0:00) Intro
G---4---4---4---4---4---4---4---4-|
D---------------------------------|
A-2---2---2---2---2---2---2---2---|
E---------------------------------|

G-----------------------------------------------------------------|
D-----------------------------------------------------------------|
A-7---5---5-7-------------------3-5---5-0-5-5-3-0---0---0-3-3-5-5-|
E-------7-----0-3---3-3-0-3-3-5-----------------------0-----------|

G-----------------------------------------------------------------|
D-----------------------------------------------------------------|
A-7---5---5-7-------------------3-5---5-0-5-5-3-0---0---0-3-3-5-5-|
E-------7-----0-3---3-3-0-3-3-5-----------------------0-----------|

(0:19) 1ª Estrofa
G-----------------------------------------------------------------|
D-----------------------------------------------------------------|
A-7---5---5-7-------------------3-5---5-0-5-5-3-3-0---0---0-0-3-3-|
E-------7-----0-3---3-3-0-3-3-5-------------------------0---------|

G----------------------------------------------|
D----------------------------------------------|
A---------7--5-------------------5---5-0-5-5---|
E-0---0-0---0--0-5---5-0-5-5-5-5-------------3-|

G-----------------------------------------------------------------|
D-----------------------------------------------------------------|
A-7---5---5-7-------------------3-5---5-0-5-5-3-3-0---0---0-0-3-3-|
E-------7-----0-3---3-3-0-3-3-5-------------------------0---------|

G-----------------------------------------------|
D-----------------------------------------------|
A---------7--5-------------------5---5-0-5-5-5/-|
E-0---0-0---0--0-5---5-0-5-5-5-5----------------|

(0:46) Pre-Estribillo
G-----------------------------------------------------------------|
D-----------------------------------------------------------------|
A---------------------------------3-3-3-3-3-3-3-3-3-3-3-3-3-3-3-3-|
E-1-1-1-1-1-1-1-1-1-1-1-1-1-1-1-1---------------------------------|

G-----------------------------------------------------------------|
D-----------------------------------------------------------------|
A-----------------------------------------------------------------|
E-1---1-1-1-1-1-1-1-1-1-1-1-1-1-1-5---5-5-5-5-5-5-0---0-0-0-0-0-0-|

(1:01) Estribillo
G-----------------------------------9---9---9---9---7---7---7---7---7-|
D---------------------------------------------------------------------|
A-----------------3~~~~-----------7---7---7---7---5---5---5---5---5---|
E-5~~~~---------------------------------------------------------------|

G---2---2---2---2---5---5---5---5---9---9---9---9---7---7---7---7---7-|
D---------------------------------------------------------------------|
A-0---0---0---0---3---3---3---3---7---7---7---7---5---5---5---5---5---|
E---------------------------------------------------------------------|

G---2---2---2---2---5---5---5---5---9---9---9---9---7---7---7---7---7-|
D---------------------------------------------------------------------|
A-0---0---0---0---3---3---3---3---7---7---7---7---5---5---5---5---5---|
E---------------------------------------------------------------------|

G---2---2---2---2---5---5---5---5---9---9---9---9---7---7---7---7---7-|
D---------------------------------------------------------------------|
A-0---0---0---0---3---3---3---3---7---7---7---7---5---5---5---5---5---|
E---------------------------------------------------------------------|

G-----------------------------------------------------------------|
D-----------------------------------------------------------------|
A-7---5---5-7-------------------3-5---5-0-5-5-3-0---0---0-3-3-5-5-|
E-------7-----0-3---3-3-0-3-3-5-----------------------0-----------|

G-----------------------------------------------------------------|
D-----------------------------------------------------------------|
A-7---5---5-7-------------------3-5---5-0-5-5-3-0---0---0-3-3-5-5-|
E-------7-----0-3---3-3-0-3-3-5-----------------------0-----------|

(1:47) 2ª Estrofa
G-----------------------------------------------------------------|
D-----------------------------------------------------------------|
A-7---5---5-7-------------------3-5---5-0-5-5-3-3-0---0---0-0-3-3-|
E-------7-----0-3---3-3-0-3-3-5-------------------------0---------|

G----------------------------------------------|
D----------------------------------------------|
A---------7--5-------------------5---5-0-5-5---|
E-0---0-0---0--0-5---5-0-5-5-5-5-------------3-|

G-----------------------------------------------------------------|
D-----------------------------------------------------------------|
A-7---5---5-7-------------------3-5---5-0-5-5-3-3-0---0---0-0-3-3-|
E-------7-----0-3---3-3-0-3-3-5-------------------------0---------|

G-----------------------------------------------|
D-----------------------------------------------|
A---------7--5-------------------5---5-0-5-5-5/-|
E-0---0-0---0--0-5---5-0-5-5-5-5----------------|

(2:13) Pre-Estribillo
G-----------------------------------------------------------------|
D-----------------------------------------------------------------|
A---------------------------------3-3-3-3-3-3-3-3-3-3-3-3-3-3-3-3-|
E-1-1-1-1-1-1-1-1-1-1-1-1-1-1-1-1---------------------------------|

G-----------------------------------------------------------------|
D-----------------------------------------------------------------|
A-----------------------------------------------------------------|
E-1---1-1-1-1-1-1-1-1-1-1-1-1-1-1-5---5-5-5-5-5-5-0---0-0-0-0-0-0-|

(2:29) Estribillo
G-----------------------------------9---9---9---9---7---7---7---7---7-|
D---------------------------------------------------------------------|
A-----------------3~~~~-----------7---7---7---7---5---5---5---5---5---|
E-5~~~~---------------------------------------------------------------|

G---2---2---2---2---5---5---5---5---9---9---9---9---7---7---7---7---7-|
D---------------------------------------------------------------------|
A-0---0---0---0---3---3---3---3---7---7---7---7---5---5---5---5---5---|
E---------------------------------------------------------------------|

G---2---2---2---2---5---5---5---5---9---9---9---9---7---7---7---7---7-|
D---------------------------------------------------------------------|
A-0---0---0---0---3---3---3---3---7---7---7---7---5---5---5---5---5---|
E---------------------------------------------------------------------|

G---2---2---2---2---5---5---5---5---9---9---9---9---7---7---7---7---7-|
D---------------------------------------------------------------------|
A-0---0---0---0---3---3---3---3---7---7---7---7---5---5---5---5---5---|
E---------------------------------------------------------------------|

G---4---4---4---4---4---4---4---4-|
D---------------------------------|
A-2---2---2---2---2---2---2---2---|
E---------------------------------|

(3:03) Solo
G-----------------------------------------------------------------|
D-----------------------------------------------------------------|
A-7---5---5-7-------------------3-5---5-0-5-5-3-0---0---0-3-3-5-5-|
E-------7-----0-3---3-3-0-3-3-5-----------------------0-----------|

G-----------------------------------------------------------------|
D-----------------------------------------------------------------|
A-7---5---5-7-------------------3-5---5-0-5-5-3-0---0---0-3-3-5-5-|
E-------7-----0-3---3-3-0-3-3-5-----------------------0-----------|

G-----------------------------------------------------------------|
D-----------------------------------------------------------------|
A-7---5---5-7-------------------3-5---5-0-5-5-3-0---0---0-3-3-5-5-|
E-------7-----0-3---3-3-0-3-3-5-----------------------0-----------|

G-----------------------------------------------|
D-----------------------------------------------|
A-7---5---5-7-------------------3-5---5-0-5-5-3-|
E-------7-----0-3---3-3-0-3-3-5-----------------|

G-----------------------------------------------|
D-----------------------------------------------|
A-----------------------------------------------|
E-0---0-0-0-0-0-0-0-/-12---12-12-12-12-12-12-12-|

(3:35) Estribillo
G---2---2---2---2---5---5---5---5---9---9---9---9---7---7---7---7---7-|
D---------------------------------------------------------------------|
A-0---0---0---0---3---3---3---3---7---7---7---7---5---5---5---5---5---|
E---------------------------------------------------------------------|

G---2---2---2---2---5---5---5---5---9---9---9---9---7---7---7---7---7-|
D---------------------------------------------------------------------|
A-0---0---0---0---3---3---3---3---7---7---7---7---5---5---5---5---5---|
E---------------------------------------------------------------------|

G---2---2---2---2---5---5---5---5---9---9---9---9---7---7---7---7---7-|
D---------------------------------------------------------------------|
A-0---0---0---0---3---3---3---3---7---7---7---7---5---5---5---5---5---|
E---------------------------------------------------------------------|

G---2---2---2---2---5---5---5---5---9---9---9---9---7---7---7---7---7-|
D---------------------------------------------------------------------|
A-0---0---0---0---3---3---3---3---7---7---7---7---5---5---5---5---5---|
E---------------------------------------------------------------------|

(4:05) Final
G-------------|
D-------------|
A-0-0---------|
E-------------|
Suggest correction
Give kudos to tab author, rate the tab!
1 2 3 4 5
comments
print report bad tab
guest
You may want to rate the tab now too:
select rating
Wanna post a correction for this tab? Suggest correction