Oops, an error
Loading. Please wait.

Mi Ventana Bass Tab

14 views 1 this week
no commentswrite comment
1 2 3 4 5
3 more votes to show rating
add to favorites
launch autoscroll
font size
0
reset
guitar tuner
Autoscroll
slow
fast
+/-
esc
set tempo
stop
Help us to improve Ultimate-Guitar.com Take our survey!
×
Esta tablatura está completa y en el orden que debe ser
tocada (no hay que repetir nada). Parece fácil, pero en
el principio el ritmo es muy difícil de llevar, pero en
las estrofas y los estribillos es bastante fácil. Pongo
partes de la letra para que se ubiquen bien...

G-----------------------------------------------------------------
D-----------------------------------------------------------------
A-3-3-3-333-3-3---------------0-0-0-000-0-0-----------------------
E---------------1-1-1-111-1-1---------------3-3-3-333-3-3-3-------

G-----------------------------------------------------------------
D-----------------------------------------------------------------
A-3-3-3-333-3-3---------------0-0-0-000-0-0-----------------------
E---------------1-1-1-111-1-1---------------3-3-3-333-3-3-3-------

G-----------------------------------------------------------------
D-----------------------------------------------------------------
A-3-3-3-333-3-3---------------0-0-0-000-0-0-----------------------
E---------------1-1-1-111-1-1---------------3-3-3-333-3-3-3-------

G-----------------------------------------------------------------
D-----------------------------------------------------------------
A-3-3-3-333-3-3---------------0-0-0-000-0-0-----------------------
E---------------1-1-1-111-1-1---------------3-3-3-333-3-3-3-------

'Mi ventana...
G-----------------------------------------------------------------
D-----------------------------------------------------------------
A-----------------------------------------------------------------
E-0-0-0-0-0-0-0-0-5-5-5-5-5-5-5-5-0-0-0-0-0-0-0-0-5-5-5-5-5-5-5-5-

...cuando veo...
G-----------------------------------------------------------------
D-----------------------------------------------------------------
A-----------------------------------------------------------------
E-0-0-0-0-0-0-0-0-5-5-5-5-5-5-5-5-1-1-1-1-1-1-1-1-3-3-3-3-3-3-3-3-

...y me aburro...
G-----------------------------------------------------------------
D-----------------------------------------------------------------
A-----------------------------------------------------------------
E-0-0-0-0-0-0-0-0-5-5-5-5-5-5-5-5-0-0-0-0-0-0-0-0-5-5-5-5-5-5-5-5-

...cuando cambia todo...
G-----------------------------------------------------------------
D-----------------------------------------------------------------
A-----------------------------------------------------------------
E-0-0-0-0-0-0-0-0-5-5-5-5-5-5-5-5-1-1-1-1-1-1-1-1-3-3-3-3-3-3-3-3-

...asomate y grita...
G-----------------------------------------------------------------
D-----------------------------------------------------------------
A-3-3-3-3-3-3-3-3-----------------0-0-0-0-0-0-0-0-----------------
E-----------------1-1-1-1-1-1-1-1-----------------3-3-3-3-3-3-3-3-

...que hoy puedo salir...
G-----------------------------------------------------------------
D-----------------------------------------------------------------
A-3-3-3-3-3-3-3-3-----------------0-0-0-0-0-0-0-0-----------------
E-----------------1-1-1-1-1-1-1-1-----------------3-3-3-3-3-3-3-3-

G-----------------------------------------------------------------
D-----------------------------------------------------------------
A-3-3-3-333-3-3---------------0-0-0-000-0-0-----------------------
E---------------1-1-1-111-1-1---------------3-3-3-333-3-3-3-------

G-----------------------------------------------------------------
D-----------------------------------------------------------------
A-3-3-3-333-3-3---------------0-0-0-000-0-0-----------------------
E---------------1-1-1-111-1-1---------------3-3-3-333-3-3-3-------

...sus ventanas...
G-----------------------------------------------------------------
D-----------------------------------------------------------------
A-----------------------------------------------------------------
E-0-0-0-0-0-0-0-0-5-5-5-5-5-5-5-5-0-0-0-0-0-0-0-0-5-5-5-5-5-5-5-5-

...o al suyo...
G-----------------------------------------------------------------
D-----------------------------------------------------------------
A-----------------------------------------------------------------
E-0-0-0-0-0-0-0-0-5-5-5-5-5-5-5-5-1-1-1-1-1-1-1-1-3-3-3-3-3-3-3-3-

...cuanto insomnio...
G-----------------------------------------------------------------
D-----------------------------------------------------------------
A-----------------------------------------------------------------
E-0-0-0-0-0-0-0-0-5-5-5-5-5-5-5-5-0-0-0-0-0-0-0-0-5-5-5-5-5-5-5-5-

...cuando duele más...
G-----------------------------------------------------------------
D-----------------------------------------------------------------
A-----------------------------------------------------------------
E-0-0-0-0-0-0-0-0-5-5-5-5-5-5-5-5-1-1-1-1-1-1-1-1-3-3-3-3-3-3-3-3-

...asomate y grita...
G-----------------------------------------------------------------
D-----------------------------------------------------------------
A-3-3-3-3-3-3-3-3-----------------0-0-0-0-0-0-0-0-----------------
E-----------------1-1-1-1-1-1-1-1-----------------3-3-3-3-3-3-3-3-

...que hoy puedo salir...
G-----------------------------------------------------------------
D-----------------------------------------------------------------
A-3-3-3-3-3-3-3-3-----------------0-0-0-0-0-0-0-0-----------------
E-----------------1-1-1-1-1-1-1-1-----------------3-3-3-3-3-3-3-3-

...asomate y forma...
G-----------------------------------------------------------------
D-----------------------------------------------------------------
A-3-3-3-333-3-3---------------0-0-0-000-0-0-----------------------
E---------------1-1-1-111-1-1---------------3-3-3-333-3-3-3-------

...necesites cubrir...
G-----------------------------------------------------------------
D-----------------------------------------------------------------
A-3-3-3-333-3-3---------------0-0-0-000-0-0-----------------------
E---------------1-1-1-111-1-1---------------3-3-3-333-3-3-3-------

G------------------
D------------------
A-3-3-----0-0------
E-----1-1------3-3-

...asomate y grita...
G-----------------------------------------------------------------
D-----------------------------------------------------------------
A-5-5-5-555-5-5---------------2-2-2-222-2-2-0-0-0-000-0-0---------
E---------------3-3-3-333-3-3-------------------------------------

...que hoy puedo salir...
G-----------------------------------------------------------------
D-----------------------------------------------------------------
A-5-5-5-555-5-5---------------2-2-2-222-2-2-0-0-0-000-0-0---------
E---------------3-3-3-333-3-3-------------------------------------

G-------------------
D-------------------
A-5-5-----2-2-0-0-5-
E-----3-3-----------

...eso es todo. por comentarios, correcciones, puteadas,
felicitaciones: noruegaz@ nos vemos.
Suggest correction
Give kudos to tab author, rate the tab!
1 2 3 4 5
comments
print report bad tab
guest
You may want to rate the tab now too:
select rating
Wanna post a correction for this tab? Suggest correction