Oops, an error
Loading. Please wait.

Sssst chords

version 2
version 2

Whole song

by Sore
1,678 views 42 this week
no commentswrite comment
1 2 3 4 5
3 more votes to show rating
add to favorites
×
Save as Personal and add changes to this tab that will be seen only by you. Learn more ›
×
You can save this tab as Personal to edit and correct it or add notes. All changes will be seen only by you. Learn more »
launch autoscroll
font size
0
reset
transpose
0
reset
simplify chords
display chords
guitar tuner
edit
Autoscroll
slow
fast
+/-
esc
set tempo
stop
Author
Difficulty
Strumming
There is no strumming pattern for this song yet. and get +5 IQ
[Intro] 


    Am7 D7 G7   Bm7 Bbm7  
e|-----------------------|-------7----------|-----------------------|-------7----------|
B|-8-7-8---7---------1/--|-8-7-8---8-7-8-8--|-8-7-8---7---------1/--|-8-7-8---8-7-8-8--|
G|-------9---7-5-7---1/--|------------------|-------9---7-5-7---1/--|------------------|
D|-------------------1/--|------------------|-------------------1/--|------------------|
A|-----------------------|------------------|-----------------------|------------------|
E|-----------------------|------------------|-----------------------|------------------|


[Verse 1]


Am7     D7            G7            Bm7 Bbm7 Am7
Dan ku tahu kau tak pernah bilang gila
Am7     D7            G7            Bm7 Bbm7 Am7
Dan tak pernah kau ku tahu bilang gila
Am7     D7            G7            Bm7 Bbm7 Am7
Namun kau tak juga pernah bilang gila
Am7     D7            G7            Bm7 Bbm7 Am7
Takkan pernah, takkan pernah hilang jiwa


[Pre-Chorus}


Am7     D7            G7            Bm7 Bbm7 Am7
Di antara sejumlah bilang yang menggila
Am7  D7     G7    Bm7 Bbm7 Am7
Di samping kawan
Am7     D7            G7            Bm7 Bbm7 Am7
Jangan kau buang yang merasakan berjiwa
Am7  D7     G7 
Di samping lawan


[Verse 2]


Am7     D7            G7            Bm7 Bbm7 Am7
Dan sekarang semua rasa sudah gila
Am7     D7            G7            Bm7 Bbm7 Am7
Dan gila pun merasakan punya jiwa
Am7     D7            G7            Bm7 Bbm7 Am7
Namun kau tak pernah juga bilang gila
Am7     D7            G7            Bm7 Bbm7 Am7
Takkan pernah, takkan pernah hilang gila


[Pre-Chorus}


Am7     D7            G7            Bm7 Bbm7 Am7
Di antara sejumlah bilang yang menggila
Am7  D7     G7    Bm7 Bbm7 Am7
Di samping kawan
Am7     D7            G7            Bm7 Bbm7 Am7
Jangan kau buang yang merasakan berjiwa
Am7  D7     G7 
Di samping lawan


[Chorus]


Am7     D7     G7            Bm7 Bbm7 Am7
Dan ku harap menjadi bagianmu
Am7     D7     G7            Bm7 Bbm7 Am7
Ku bisa gila tak berharap
Am7     D7     G7            Bm7 Bbm7 Am7
Dan ku harap menjadi harapanmu
Am7     D7     G7 
Ku bisa gila


[Solo]

           

    Am7 D7 G7   Bm7 Bbm7  Am7 D7 G7   Bm7 Bbm7 Am7 D7 G7   Bm7 Bbm7  Am7 D7 G7   Bm7 Bbm7
e|-----------------------|-------7----------|-----------------------|-------7----------|
B|-8-7-8---7---------1/--|-8-7-8---8-7-8-8--|-8-7-8---7---------1/--|-8-7-8---8-7-8-8--|
G|-------9---7-5-7---1/--|------------------|-------9---7-5-7---1/--|------------------|
D|-------------------1/--|------------------|-------------------1/--|------------------|
A|-----------------------|------------------|-----------------------|------------------|
E|-----------------------|------------------|-----------------------|------------------|


[Chorus]


Am7     D7     G7            Bm7 Bbm7 Am7
Dan ku harap menjadi bagianmu
Am7     D7     G7            Bm7 Bbm7 Am7
Ku bisa gila tak berharap
Am7     D7     G7            Bm7 Bbm7 Am7
Dan ku harap menjadi harapanmu
Am7     D7     G7 
Ku bisa gila


[Verse 2]


Am7     D7            G7            Bm7 Bbm7 Am7
Dan sekarang semua rasa sudah gila
Am7     D7            G7            Bm7 Bbm7 Am7
Dan gila pun merasakan punya jiwa
Am7     D7            G7            Bm7 Bbm7 Am7
Namun kau tak pernah juga bilang gila
Am7     D7            G7            Bm7 Bbm7 Am7
Takkan pernah, takkan pernah hilang gila


[Chorus]


Am7     D7     G7            Bm7 Bbm7 Am7
Dan ku harap menjadi bagianmu
Am7     D7     G7            Bm7 Bbm7 Am7
Ku bisa gila tak berharap
Am7     D7     G7            Bm7 Bbm7 Am7
Dan ku harap menjadi harapanmu
Am7     D7     G7 
Ku bisa gila


[Outro]


  Am7        D7     G7  Bm7 Bbm7 Am7
e|----7---7---7---7--5-5-7--5-5-7---|---7---7---7---7--5-5-7--5-5-7---5-5-7|
B|--8---8---8---8---------8-------7-|-8---8---8---8---------8-------7------|
G|----------------------------------|--------------------------------------|
D|----------------------------------|--------------------------------------|
A|----------------------------------|--------------------------------------|
E|----------------------------------|--------------------------------------|

e|-------5---5-7----7----7---|---7---7---7---7-5-5-7---5-5-7---5-5-7---------|
B|-5-7-8---8------8----8-----|-8---8---8---8---------8-------7---------------|
G|---------------------------|-----------------------------------------------|
D|---------------------------|-----------------------------------------------|
A|---------------------------|-----------------------------------------------|
E|---------------------------|-----------------------------------------------|


e|-------5---5-7----7----7---|---7---7-5-5-7---5-5-7---5-5-7-----------------|
B|-5-7-8---8------8----8-----|-8---8---------8-------7-----------------------|
G|---------------------------|-----------------------------------------------|
D|---------------------------|-----------------------------------------------|
A|---------------------------|-----------------------------------------------|
E|---------------------------|-----------------------------------------------|

e|-------5---5-7----10---10--|---8---7-5-5-7---5-5-7---5-5-7-----------------|
B|-5-7-8---8------8----8-----|-8---8---------8-------7-----------------------|
G|---------------------------|-----------------------------------------------|
D|---------------------------|-----------------------------------------------|
A|---------------------------|-----------------------------------------------|
E|---------------------------|-----------------------------------------------|




************************************

| /   Slide upwards

************************************
Suggest correction
Creating personal tab
Creating personal tab
You can edit any tab online and save it as your Personal.

You can edit, replace or remove any tab part or add personal notes – all changes will be seen only by you.

Personal tabs can be accessed anytime from any device, even offline.
Learn more »
Give kudos to tab author, rate the tab!
1 2 3 4 5
comments
print report bad tab
guest
You may want to rate the tab now too:
select rating
Wanna post a correction for this tab? Suggest correction