Oops, an error
Loading. Please wait.

Art School Wannabe chords

version 2
version 2

Whole song

2,452 views 33 this week
1 commentread comment
1 2 3 4 5
x 5
add to favorites
×
Save as Personal and add changes to this tab that will be seen only by you. Learn more ›
×
You can save this tab as Personal to edit and correct it or add notes. All changes will be seen only by you. Learn more »
launch autoscroll
font size
0
reset
transpose
0
reset
simplify chords
display chords
guitar tuner
edit
Autoscroll
slow
fast
+/-
esc
set tempo
stop
Author
Strumming
There is no strumming pattern for this song yet. and get +5 IQ
Cam plays this in Drop Db/Drop C# (Db Ab Db Gb Bb Eb) with a capo on 4.
Adam plays it in C standard (C F Bb Eb G C)
Tabbed the solo for standard, and the chords are chords.
Chorus is all powerchords.

[Verse]
CHORD SHAPES
   F  A  Dm  Bb
e|-5--5--5---6--|
B|-6--5--6---6--|
G|-5--6--7---7--|
D|-7--7--7---8--|
A|-8--7--5---8--|
E|---(5)-----6--|

F             A       Dm         Bb 
    Wiping my eyes of sleep
F         A                  Dm      Bb
Drinking yesterday morning's coffee
F       A                Dm            Bb
Slam my head against the wall, put the same black jeans on
F      A                     Dm       Bb
Wear a hat so you can't see my hair


[Pre-Chorus]
CHORD SHAPES
   C  Bb (can simplify to a powerchord, but he drones the C E G octave from the last chord.)
e|-------|
B|-5--5--|
G|-5--5--|
D|-5--5--|
A|-7--8--|
E|-8--6--|

C                      Bb
Maybe I won't die this time
C                       Bb
Maybe I'll be fine this time


[Chorus]
CHORD SHAPES
   F5 A5 Bb5 G5  F#5
e|-----------------|
B|-----------------|
G|-----------------|
D|-3--7--8---5---4-|
A|-3--7--8---5---4-|
E|-1--5--6---3---2-|


                          F5
Maybe I'm my own greatest fear
                          A5
Maybe I'm too scared to admit that
                            Bb
I might not be as dark as i think
                  G5
Maybe I'm not the person
                       F5
that I never wanted to be
                          A5
Maybe I'm my own greatest fear
                         Bb5
Maybe I'm too scared to admit that
                            G5
I might not be as dark as I think
                           F
I might not be as dark as I think


Lead line:

e|---------------------------------------------|
B|---------------------------------------------|
G|-10-10-10/12/10/9-9-9/10/9/7--7-7/9/7/5---3--|
D|---------------------------------------------|
A|-8--8--8//10//8/7-7-7//8/7/5--5-5/7/5/3---1--|
E|---------------------------------------------|

e|-----------------------------------------------------------|
B|-----------------------------------------------------------|
G|-10-10-10/12/10/9-9-9/10/9/7--7-7/9/7/5--10/12/14-10-12/14-|
D|-----------------------------------------------------------|
A|-8--8--8//10//8/7-7-7//8/7/5--5-5/7/5/3---8/10/12-8--10/12-|
E|-----------------------------------------------------------|


Rhythm:

F A Dm Bb

(All electric organ, but sounds nice if you do just root + 10th)


[Verse]

              F                A
So here's the thing, I'm doing fine
            Dm                 Bb
I know that I'm not worth your time
           F                     A
You need a change, I'm still the same
     Dm             Bb
Took everything but my name


[Pre-Chorus]

C                      Bb
Maybe I won't die this time
C                       Bb
Maybe I'll be fine this time


[Chorus]

                          F5
Maybe I'm my own greatest fear
                          A5
Maybe I'm too scared to admit that
                            Bb5
I might not be as dark as I think
                  G5
Maybe I'm not the person
                       F5
that I never wanted to be
                          A5
Maybe I'm my own greatest fear
                         Bb5
Maybe I'm too scared to admit that
                            F5 F# G5
I might not be as dark as I    think
                            Dm
I might not be as dark as I think


[Solo]

Rhythm:
CHORD SHAPES
   Dm  C  Bb  Bb
e|-5---3--3--|
B|-6---5--5--|
G|-7---5--5--|
D|-7---5--5--|
A|-5---3--3--|
E|-----------|

Dm C Bb
Dm C Bb


Lead:

e|---------------------------------------------------------|
B|---------------------------------------------------------|
G|---------------------------------------------------------|
D|-----------------------------------10-10h12p10----10-12--|
A|-5-3-5--7-5-7--8-7-8--10-8-10--12-------------12---------|
E|---------------------------------------------------------|

e|--------------------------------------------------------------------|
B|--------------------------------------------------------------------|
G|--10-------------10-----10-12-12b14-12-10----10--12b13b12--10-12-14-|
D|------12-10-12------12--------------------12------------------------|
A|--------------------------------------------------------------------|
E|--------------------------------------------------------------------|

e|-------------------------------------------------------------------|
B|-------13-------15p13-----13h15p13--13h15p13--13h15p13--13h15p13---|
G|-12-14-----12-14--------14--------14--------14--------14--------14-|
D|-------------------------------------------------------------------|
A|-------------------------------------------------------------------|
E|-------------------------------------------------------------------|

e|------------------------------------|
b|----13h15p13--13h15p13--13h15p13----|
G|--14--------14--------14--------14--|
D|------------------------------------|
A|------------------------------------|
E|------------------------------------|

e|-13-12-------------13-12-------------13-12-------------13-12----13b15-|
b|-------13----------------13----------------13----------------13-------|
G|----------14-12-------------14-12-------------14-12-------------------|
D|----------------15----------------15----------------15----------------|
A|----------------------------------------------------------------------|
E|----------------------------------------------------------------------|

e|-15b17---15b17b15-11----15b17-15b17---15b17b15--15b17-15b17---15b17b15----|
B|---------------------13------------------------------------------------13-|
G|--------------------------------------------------------------------------|
D|--------------------------------------------------------------------------|
A|--------------------------------------------------------------------------|
E|--------------------------------------------------------------------------|

e|-17-18-17-15-13-----------|
B|----------------13-11~~~~-|
G|--------------------------|
D|--------------------------|
A|--------------------------|
E|--------------------------|


[Chorus]

                          F
Maybe I'm my own greatest fear
                          Am
Maybe I'm too scared to admit that
                            G5
I might not be as dark as I think
                  Bb5
Maybe I'm not the person
                       F5
that I never wanted to be
                          A5
Maybe I'm my own greatest fear
                         Bb5
Maybe I'm too scared to admit that
                            G5
I might not be as dark as I think, I might not be as dark as I think



************************************

| h  Hammer-on
| p  Pull-off
| b  Bend
| /  Slide up
| ~  Vibrato

************************************

            
            
Suggest correction
Creating personal tab
Creating personal tab
You can edit any tab online and save it as your Personal.

You can edit, replace or remove any tab part or add personal notes – all changes will be seen only by you.

Personal tabs can be accessed anytime from any device, even offline.
Learn more »
comments
print report bad tab
1 comment total.
0 reply
DemonofRoses 10 5 days ago

The final bar of the solo should go

e|-17-18-17-15-13-----------|
B|----------------15-13~~~~-|
G|--------------------------|
D|--------------------------|
A|--------------------------|
E|--------------------------|

guest
You may want to rate the tab now too:
select rating
Wanna post a correction for this tab? Suggest correction