Oops, an error
Loading. Please wait.

Blissth Tab

61 views 12 this week
no commentswrite comment
1 2 3 4 5
1 last vote to show rating
add to favorites
launch autoscroll
font size
0
reset
how to read this tab
guitar tuner
Autoscroll
slow
fast
+/-
esc
set tempo
stop
Help us to improve Ultimate-Guitar.com Take our survey!
×
Author
Difficulty
Tuning
advanced
C# G# E B F# C#
did this all by ear so it might be a little rough


[Intro]

e|---------------------------------------------------------------------------|
B|--------------------4------------------------------------------------------|
G|----0-2------------4-------------------------------------------------------|
D|---4---4-4-2-0----4---------0-----4---4------------------------------------|
A|---5---5-5-------4------2-4---2-4---2-5------------------------------------|
E|---------------------------------------------------------------------------|

[Verse]
1st time: Let me be the drug...
2nd time: Let me sink...
3rd time: I wanna be...
4th time: Let me hide...

  1  2,3,4
e|--|-----|------------------4-------------------------------------------------------|
B|-3|3----|----------------4---------------------------------------------------------|
G|-x|x-0-2|--------------4------------0-2--------------------------------------------|
D|-4|4----|4-4-2-0-----4--------2---4-----4-2----------------------------------------| X4
A|-5|5----|5-2-------4----------0-5-5-----2-0----------------------------------------|
E|--|-----|--------4-----------------------------------------------------------------|


   And why...                I can still..                    I wasn't
e|-------------------------------------------------------------------------------|
B|---------------------------------------------------------3---------------------|
G|--------0-2------------------0-2-----------------------2----------------7------|  play last chord multiple
D|-4-2--4-----4-2-0-4-4-2----4-----4--4-2-0-4-4-2------4------4-2---4-2-0-7------|  times palm muted
A|-2-0--5-----5-----5-2-0-5--5-----5--5-----5-2-0-5-----------2-0-5-2-0---5------|
E|------------------------5-----------------------5---------------5-------5------|

[Break]

e|---------------------------------------------------------------------------|
B|----8-10---8-10---------------7-----7--------------------------------------|
G|-/11------11-----11-9------7-9---7-9---11-12p11-9--------------------------|
D|---------------------12-9--------------------------------------------------|  X2
A|---------------------------------------------------------------------------|
E|---------------------------------------------------------------------------|


[Outro]

play each chord about 3 times except the last one.

e|---------------------------------------------------------------------------|
B|-------3-------------------------------------------------------------------|
G|-7--5--4-------7-----------------------------------------------------------|
D|-7--5--4-5---7-7-4---------------------------------------------------------|
A|-5--3--2-5---7-5-5---------------------------------------------------------|
E|-5--3----5---7-5-5---------------------------------------------------------|



************************************

| x   Dead note
| h   Hammer-on
| p   Pull-off
| /   Slide up

************************************
Suggest correction
Give kudos to tab author, rate the tab!
1 2 3 4 5
comments
print report bad tab
guest
You may want to rate the tab now too:
select rating
Wanna post a correction for this tab? Suggest correction