Oops, an error
Loading. Please wait.

Blissth tab

version 2
version 2

Whole song

208 views 12 this week
2 commentsread comments
1 2 3 4 5
x 3
add to favorites
×
Save as Personal and add changes to this tab that will be seen only by you. Learn more ›
×
You can save this tab as Personal to edit and correct it or add notes. All changes will be seen only by you. Learn more »
launch autoscroll
font size
0
reset
how to read this tab
guitar tuner
edit
Autoscroll
slow
fast
+/-
esc
set tempo
stop
Author
Difficulty
Tuning: Open C# (Open D tuning a half step down) 
C# G# C# F G# C#

[Intro]

   1 + 2 + 3 + 4 +  1 + 2 + 3 + 4 +  1 + 2 + 3 + 4 +  1 + 2 + 3 + 4 +
C#|----------------|----------------|----------------|----------------|
G#|----------------|----------------|----------------|----------------|
 F|----------------|----------------|----------------|------0---------|
C#|4-----5-----7---|4---------------|4-----2-----0---|----0-----------|
G#|5---------------|3---------------|2---------------|--2-------------|
C#|----------------|----------------|----------------|5---------------|

   1 + 2 + 3 + 4 +  1 + 2 + 3 + 4 +  1 + 2 + 3 + 4 +  1 + 2 + 3 + 4 +
C#|----------------|----------------|----------------|----------------|
G#|----------------|----------------|----------------|----------------|
 F|----------------|------------0---|----------------|----------------|
C#|------------0---|------0---------|----------------|----------------|
G#|------4---------|2---------------|----------------|----------------|
C#|7---------------|----------------|5---------------|7---------------|



[Verse]

   1 + 2 + 3 + 4 +  1 + 2 + 3 + 4 +  1 + 2 + 3 + 4 +  1 + 2 + 3 + 4 +
C#|----------------|----------------|----------------|----------0-----|
G#|----------------|----------------|----------------|--------0-------|
 F|----------------|----------------|----------------|------0---------|
C#|4---------------|4---------------|4-----2-----0---|----0-----------|
G#|5---------------|3---------------|2---------------|--2-------------|
C#|----------------|----------------|----------------|5---------------|
   Let me be the drug...    


   1 + 2 + 3 + 4 +  1 + 2 + 3 + 4 +  1 + 2 + 3 + 4 +  1 + 2 + 3 + 4 +
C#|----------------|----------------|----------------|----------------|
G#|----------------|----------------|----------------|----------------|
 F|------------0---|------------0---|----------------|----------------|
C#|----------------|------0---------|----------------|----------------|
G#|------4---------|2---------------|----------------|----------------|
C#|7---------------|----------------|5---------------|7---------------|
...heroin that keeps you...

   1 + 2 + 3 + 4 +  1 + 2 + 3 + 4 +  1 + 2 + 3 + 4 +  1 + 2 + 3 + 4 +
C#|----------------|----------------|----------------|-------------0--|
G#|----------------|----------------|----------------|----------0-----|
 F|----------------|----------------|----------------|-------0--------|
C#|4-----5-----7---|4---------------|4-----2-----0---|-----0----------|
G#|5---------------|3---------------|2---------------|--2-------------|
C#|----------------|----------------|----------------|5---------------|
...sink to your skin...

     1 + 2 + 3 + 4 +  1 + 2 + 3 + 4 +  1 + 2 + 3 + 4 +  1 + 2 + 3 + 4 +
C#|----------------|----------------|----------------|----------------|
G#|----------------|----------------|----------------|----------------|
 F|------------0---|------------0---|----------------|----------------|
C#|----------------|------0---------|----------------|----------------|
G#|------4---------|2---------------|----------------|----------------|
C#|7---------------|----------------|5---------------|7---------------|
   stitch me up...

   1 + 2 + 3 + 4 +  1 + 2 + 3 + 4 +  1 + 2 + 3 + 4 +  1 + 2 + 3 + 4 +
C#|----------------|----------------|----------------|----------------|
G#|----------------|----------------|----------------|-------------0--|
 F|----------------|----------------|----------------|---------0------|
C#|4-----5-----7---|4---------------|4-----2-----0---|------0---------|
G#|5---------------|3---------------|2---------------|--2-------------|
C#|----------------|----------------|----------------|5---------------|
...water in your lungs...

   1 + 2 + 3 + 4 +  1 + 2 + 3 + 4 +  1 + 2 + 3 + 4 +  1 + 2 + 3 + 4 +
C#|----------------|----------------|----------------|----------------|
G#|----------------|----------------|----------------|----------------|
 F|----------------|------------0---|----------------|----------------|
C#|------------0---|------0---------|----------------|----------------|
G#|------4---------|2---------------|----------------|----------------|
C#|7---------------|----------------|5---------------|7---------------|
...last sip of gin...

   1 + 2 + 3 + 4 +  1 + 2 + 3 + 4 +  1 + 2 + 3 + 4 +  1 + 2 + 3 + 4 +
C#|----------------|----------------|----------------|----------------|
G#|----------------|----------------|----------------|-------------0--|
 F|----------------|----------------|----------------|---------0------|
C#|4-----5-----7---|4---------------|4-----2-----0---|------0---------|
G#|5---------------|3---------------|2---------------|--2-------------|
C#|----------------|----------------|----------------|5---------------|
...hide in your neck...

   1 + 2 + 3 + 4 +  1 + 2 + 3 + 4 +  1 + 2 + 3 + 4 +  1 + 2 + 3 + 4 +
C#|----------------|----------------|----------------|----------------|
G#|----------------|----------------|----------------|----------------|
 F|----------------|----------------|----------------|----------------|
C#|------------0---|----------------|----------------|----------------|
G#|------4---------|2-----5-----5---|----------------|----------------|
C#|7---------------|----------------|5---------------|7---------------|
...too proud to swallow...



[Chorus]

   1 + 2 + 3 + 4 +  1 + 2 + 3 + 4 +  1 + 2 + 3 + 4 +  1 + 2 + 3 + 4 +
C#|----------------|----------------|----------------|----------------|
G#|----------------|----------------|----------------|----------------|
 F|----------------|----------------|----------------|----------------|
C#|----------------|----------------|4-----5-----7---|4---------------|
G#|----------------|----------------|5---------------|3---------------|
C#|5---------------|7---------------|----------------|----------------|
...why do I still...

   1 + 2 + 3 + 4 +  1 + 2 + 3 + 4 +  1 + 2 + 3 + 4 +  1 + 2 + 3 + 4 +
C#|----------------|----------------|----------------|----------------|
G#|----------------|----------------|----------------|----------------|
 F|----------------|----------------|----------------|----------------|
C#|----------------|----------------|----------------|----------------|
G#|----------------|----------------|----------------|----------------|
C#|7---------------|----------------|5---------------|----------------|
...love to the way...

  1 + 2 + 3 + 4 +  1 + 2 + 3 + 4 +  1 + 2 + 3 + 4 +  1 + 2 + 3 + 4 +
C#|----------------|----------------|----------------|----------------|
G#|----------------|----------------|----------------|----------------|
 F|----------------|----------------|----------------|----------------|
C#|----------------|----------------|4-----5-----7---|4---------------|
G#|----------------|----------------|5---------------|3---------------|
C#|5---------------|7---------------|----------------|----------------|
...still hear you sing...

   1 + 2 + 3 + 4 +  1 + 2 + 3 + 4 +  1 + 2 + 3 + 4 +  1 + 2 + 3 + 4 +
C#|----------------|----------------|----------------|------------0---|
G#|----------------|----------------|----------------|------0---------|
 F|----------------|----------------|----------------|0---------------|
C#|----------------|----------------|------------0---|----------------|
G#|2---------------|0---------------|------2---------|----------------|
C#|----------------|----------------|5---------------|----------------|
   My eyes will continue...

   1 + 2 + 3 + 4 +  1 + 2 + 3 + 4 +  1 + 2 + 3 + 4 +  1 + 2 + 3 + 4 +
C#|----------------|----------------|----------------|------0---------|
G#|----------------|----------------|----------------|----0-----------|
 F|----------------|----------------|----------------|0---------------|
C#|----------------|----------------|------------0---|----------------|
G#|2---------------|0---------------|------2---------|----------------|
C#|----------------|----------------|5---------------|----------------|
   I wasn't built to exist

   1 + 2 + 3 + 4 +  1 + 2 + 3 + 4 +  1 + 2 + 3 + 4 +  1 + 2 + 3 + 4 +  1 + 2 + 3 + 4 +  1 + 2 + 3 +
C#|----------------|----------------|----------------|----------------|----------------|------------|
G#|----------------|----------------|----------------|----------------|----------------|------------|
 F|----------------|----------------|----------------|----------------|----------------|------------|
C#|----------------|----------------|7-7-7-7-7-7-7-7-|7-7-7-7-7-7-7-7-|7|7-7-7-7-7-7-7-|7-----------|
G#|2---------------|0---------------|5-5-5-5-5-5-5-5-|5-5-5-5-5-5-5-5-|5-5-5-5-5-5-5-5-|5-----------|
C#|----------------|----------------|5-5-5-5-5-5-5-5-|5-5-5-5-5-5-5-5-|5-5-5-5-5-5-5-5-|5-----------|
...ghost limbs were never...        |PM- - - - - - - - - - - - - - - - - - - - - - - - |



[Instrumental](Two guitars)

GUITAR 1 (LEAD)
   4 +  1  +  2  +  3  +  4  +   1  +  2  +  3  +  4  +   1  +  2  +  3  +  4  +   1  +  2  +  3  +  4  +
C#|7/--|16-16-16-17-17-17-19-19-|16-16-16-17-17-17-19-19-|16-16-16----------------|------------------------|
G#|----|------------------------|------------------------|---------19-19-19-17 17-|14-14-14-14-14-14-14-14-|
 F|----|------------------------|------------------------|------------------------|------------------------|
C#|----|------------------------|------------------------|------------------------|------------------------|
G#|----|------------------------|------------------------|------------------------|------------------------|
C#|----|------------------------|------------------------|------------------------|------------------------|

   1  +  2  +  3  +  4  +   1  +  2  +  3  +  4  +   1  +  2  +  3  +  4  +   1  +  2  +  3  +  4  +
C#|------------------------|------------------16-16-|16-16-16-16-16-17-16----|------------------------|
G#|16-16-16-17-17-17-19-19-|17-17-17-19-19-19-------|---------------------17-|19-19-19-19-19-17-16-17-|
 F|------------------------|------------------------|------------------------|------------------------|
C#|------------------------|------------------------|------------------------|------------------------|
G#|------------------------|------------------------|------------------------|------------------------|
C#|------------------------|------------------------|------------------------|------------------------|

   1  +  2  +  3  +  4  +   1  +  2  +  3  +  4  +   1  +  2  +  3  +  4  +   1  +  2  +  3  +  4  +
C#|16-16-16-17-17-17-19-19-|16-16-16-17-17-17-19-19-|16-16-16----------------|------------------------|
G#|------------------------|------------------------|---------19-19-19-17 17-|14-14-14-14-14-14-14-14-|
 F|------------------------|------------------------|------------------------|------------------------|
C#|------------------------|------------------------|------------------------|------------------------|
G#|------------------------|------------------------|------------------------|------------------------|
C#|------------------------|------------------------|------------------------|------------------------|

   1  +  2  +  3  +  4  +   1  +  2  +  3  +  4  +   1  +  2  +  3  +  4  +   1  +  2  +  3  +  4  +
C#|------------------------|------------------16-16-|16-16-16-16-16-16-16-16-|16-16-16-16-16----------|
G#|16-16-16-17-17-17-19-19-|17-17-17-19-19-19-------|------------------------|---------------19-17-19-|
 F|------------------------|------------------------|------------------------|------------------------|
C#|------------------------|------------------------|------------------------|------------------------|
G#|------------------------|------------------------|------------------------|------------------------|
C#|------------------------|------------------------|------------------------|------------------------|


GUITAR 2 (RHYTHM)
   1  +  2  +  3  +  4  +   1  +  2  +  3  +  4  +   1  +  2  +  3  +  4  +   1  +  2  +  3  +  4  +
C#|------------------------|------------------------|------------------------|------------------------|
G#|------------------------|------------------------|------------------------|------------------------|
 F|------------------------|------------------------|------------------------|------------------------|
C#|12-12-12-12-12-12-12-12-|10-10-10-10-10-10-10-10-|9--9--9--9--9--9--9--9--|5--5--5--5--5--5--5--5--|
G#|12-12-12-12-12-12-12-12-|10-10-10-10-10-10-10-10-|9--9--9--9--9--9--9--9--|5--5--5--5--5--5--5--5--|
C#|12-12-12-12-12-12-12-12-|10-10-10-10-10-10-10-10-|9--9--9--9--9--9--9--9--|5--5--5--5--5--5--5--5--|

   1  +  2  +  3  +  4  +   1  +  2  +  3  +  4  +   1  +  2  +  3  +  4  +   1  +  2  +  3  +  4  +
C#|------------------------|------------------------|------------------------|------------------------|
G#|------------------------|------------------------|------------------------|------------------------|
 F|------------------------|------------------------|------------------------|------------------------|
C#|7--7--7--7--7--7--7--7--|9--9--9--9--9--9--9--9--|5--5--5--5--5--5--5--5--|7--7--7--7--7--7--7--7--|
G#|7--7--7--7--7--7--7--7--|9--9--9--9--9--9--9--9--|5--5--5--5--5--5--5--5--|7--7--7--7--7--7--7--7--|
C#|7--7--7--7--7--7--7--7--|9--9--9--9--9--9--9--9--|5--5--5--5--5--5--5--5--|7--7--7--7--7--7--7--7--|

   1  +  2  +  3  +  4  +   1  +  2  +  3  +  4  +   1  +  2  +  3  +  4  +   1  +  2  +  3  +  4  +
C#|------------------------|------------------------|------------------------|------------------------|
G#|------------------------|------------------------|------------------------|------------------------|
 F|------------------------|------------------------|------------------------|------------------------|
C#|12-12-12-12-12-12-12-12-|10-10-10-10-10-10-10-10-|9--9--9--9--9--9--9--9--|5--5--5--5--5--5--5--5--|
G#|12-12-12-12-12-12-12-12-|10-10-10-10-10-10-10-10-|9--9--9--9--9--9--9--9--|5--5--5--5--5--5--5--5--|
C#|12-12-12-12-12-12-12-12-|10-10-10-10-10-10-10-10-|9--9--9--9--9--9--9--9--|5--5--5--5--5--5--5--5--|

   1  +  2  +  3  +  4  +   1  +  2  +  3  +  4  +   1  +  2  +  3  +  4  +   1  +  2  +  3  +  4  +
C#|------------------------|------------------------|------------------------|------------------------|
G#|------------------------|------------------------|------------------------|------------------------|
 F|------------------------|------------------------|------------------------|------------------------|
C#|7--7--7--7--7--7--7--7--|9--9--9--9--9--9--9--9--|5--5--5--5--5--5--5--5--|7--7--7--7--7--7--7--7--|
G#|7--7--7--7--7--7--7--7--|9--9--9--9--9--9--9--9--|5--5--5--5--5--5--5--5--|7--7--7--7--7--7--7--7--|
C#|7--7--7--7--7--7--7--7--|9--9--9--9--9--9--9--9--|5--5--5--5--5--5--5--5--|7--7--7--7--7--7--7--7--|


[Outro] (Two Guitars)

GUITAR 1 (LEAD)  
   1 + 2 + 3 + 4 +  1 + 2 + 3 + 4 +  1 + 2 + 3 + 4 +  1 + 2 + 3 + 4 +
C#|16----17----19--|16----17----19--|16--------------|----------------|
G#|----------------|----------------|------19----17--|14----16----17--|
 F|----------------|----------------|----------------|----------------|
C#|----------------|----------------|----------------|----------------|
G#|----------------|----------------|----------------|----------------|
C#|----------------|----------------|----------------|----------------|
   You'll always be...

   1 + 2 + 3 + 4 +  1 + 2 + 3 + 4 +  1 + 2 + 3 + 4 +  
C#|----------------|------------16--|16--------------|
G#|16----17----19--|17----19--------|----------------|
 F|----------------|----------------|----------------|
C#|----------------|----------------|----------------|
G#|----------------|----------------|----------------|
C#|----------------|----------------|----------------|
...I'm always...

GUITAR 2 (RHYTHM)  
   1 + 2 + 3 + 4 +  1 + 2 + 3 + 4 +  1 + 2 + 3 + 4 +  1 + 2 + 3 + 4 +
C#|----------------|----------------|----------------|----------------|
G#|----------------|----------------|----------------|----------------|
 F|----------------|----------------|----------------|----------------|
C#|12----12----12--|10----10----10--|9-----9-----9---|5-----5-----5---|
G#|12----12----12--|10----10----10--|9-----9-----9---|5-----5-----5---|
C#|12----12----12--|10----10----10--|9-----9-----9---|5-----5-----5---|
   You'll always be...

   1 + 2 + 3 + 4 +  1 + 2 + 3 + 4 +  1 + 2 + 3 + 4 + 
C#|----------------|----------------|----------------|
G#|----------------|----------------|----------------|
 F|----------------|----------------|----------------|
C#|7-----7-----7---|9-----9-----9---|5---------------|
G#|7-----7-----7---|9-----9-----9---|5---------------|
C#|7-----7-----7---|9-----9-----9---|5---------------|
...I'm always...

************************************

| x   Dead note
| g   Grace note
| (n) Ghost note
| h   Hammer-on
| p   Pull-off
| r   Release
| >   Accented note
| t   Tapping
| b   Bend
| br  Bend release
| pb  Pre-bend
| pbr Pre-bend release
| /   Slide up
| \   Slide down
| s   Slap
| P   Pop
| PM  Palm mute
| TR  Trill
| N   Tremolo

************************************
Suggest correction
Creating personal tab
Creating personal tab
You can edit any tab online and save it as your Personal.

You can edit, replace or remove any tab part or add personal notes – all changes will be seen only by you.

Personal tabs can be accessed anytime from any device, even offline.
Learn more »
Give kudos to tab author, rate the tab!
1 2 3 4 5
comments
print report bad tab
2 comments total.
-1 reply
kelton.sullivan 10 Mar 02, 2017 05:08 PM

didn't like this contribution

-1 reply
kelton.sullivan 10 Mar 02, 2017 05:09 PM

so much words

guest
You may want to rate the tab now too:
select rating
Wanna post a correction for this tab? Suggest correction