Oops, an error
Loading. Please wait.

Either Way tab

version 1
version 1

Whole song

  • Loosely based on 'This Has To Stop' video session.
1,582 views 18 this week
2 commentsread comments
1 2 3 4 5
x 5
add to favorites
×
Save as Personal and add changes to this tab that will be seen only by you. Learn more ›
×
You can save this tab as Personal to edit and correct it or add notes. All changes will be seen only by you. Learn more »
launch autoscroll
font size
0
reset
how to read this tab
guitar tuner
edit
Autoscroll
slow
fast
+/-
esc
set tempo
stop
I did this all by ear, so it's highly unlikely to be correct. Please correct me if you find any mistakes!
You can also check out my cover here, maybe it helps: https://youtu.be/7USpHglsjlU

Sorority Noise - Either Way

Eb|-----------------------------------------|----|-----------------------|  
Bb|--5h7--5---------------------------------|----|--5h7---5--------------|  
Gb|-----------7---6---4---2-----------------|----|--------------7---6~---|  
Db|-------------------------------2/4/2-0---|-x3-|-----------------------| 
Ab|-----------------------------------------|----|-----------------------|  
Db|-0----0—-0---0---0--0----0------------0--|----|----0-----0----0-------|

Saw my chance...
Eb|-----------------------------------|----|----------------|  
Bb|--5h7--5---------------------------|----|----------------|
Gb|-----------7---6---4---------------|----|----------------|  
Db|----------------------7---7---7----|-x2-|----0---0---7---|
Ab|-----------------------------------|----|---9---7----5---|  
Db|-0----0—-0---0---0--0---0---0---0--|----|--9---7-----5---|

Eb|------------------------------------------------------------------|  
Bb|--5h7--5-------------------------------------5h7---5--------------|  
Gb|-----------7---6---4---2---------------------------------7---6~---|  
Db|-------------------------------2/4/2-0----------------------------| 
Ab|------------------------------------------------------------------|  
Db|-0----0—-0---0---0--0----0------------0--------0-----0----0-------|

Saw my chance...
Eb|-----------------------------------|----|----------------|  
Bb|--5h7--5---------------------------|----|----------------|
Gb|-----------7---6---4---------------|----|----------------|  
Db|----------------------7---7---7----|-x2-|----0---0---7---| 
Ab|-----------------------------------|----|---9---7----5---|  
Db|-0----0—-0---0---0--0---0---0---0--|----|--9---7-----5---|

                                           ...and maybe it's not so bad
Eb|--------------------------------------------|-----------------|----|  
Bb|--5h7--5------------------------------------|-----------------|----|  
Gb|-----------7---6---4---2--------------------|-----------------|----|  
Db|-------------------------------2/4/2-0------|----0---0----7---|-x2-| 
Ab|--------------------------------------------|---9---7-----5---|----| 
Db|-0----0—-0---0---0--0----0------------------|--9---7------5---|----|

Eb|------------------------------------------------------------------|  
Bb|--5h7--5-------------------------------------5h7---5--------------|  
Gb|-----------7---6---4---2---------------------------------7---6~---|  
Db|-------------------------------2/4/2-0----------------------------| 
Ab|------------------------------------------------------------------|  
Db|-0----0—-0---0---0--0----0------------0--------0-----0----0-------|

Saw my chance...
Eb|-----------------------------------|----|----------------|  
Bb|--5h7--5---------------------------|----|----------------|
Gb|-----------7---6---4---------------|----|----------------|  
Db|----------------------7---7---7----|-x2-|----0---0---7---| 
Ab|-----------------------------------|----|---9---7----5---|  
Db|-0----0—-0---0---0--0---0---0---0--|----|--9---7-----5---|

Eb|--------------------------------------------------------|  
Bb|--5h7--5--------------------------------5h7--5----------|  
Gb|-----------7---6---4-----------------------------7---6~-|  
Db|-----------------------7--7--7--------------------------| 
Ab|--------------------------------------------------------|  
Db|-0----0—-0---0---0--0----0--0--0-----------0---0---0----|

Saw you smile...
Eb|-----------------------------------|----|---------------|----|  
Bb|--5h7--5---------------------------|----|---------------|----|
Gb|-----------7---6---4---------------|----|---------------|----|  
Db|----------------------7---7---7----|-x2-|----0---0---7—-|-x3-| 
Ab|-----------------------------------|----|---9---7----5--|----|  
Db|-0----0—-0---0---0--0---0---0---0--|----|--9---7-----5--|----|

Eb|---------------------------------------------------------------|  
Bb|--5h7--5----------------------------------5h7---5--------------|  
Gb|-----------7---6---4---2------------------------------7---6~---|  
Db|-----------------------------2/4/2-0---------------------------| 
Ab|---------------------------------------------------------------|  
Db|-0----0—-0---0---0--0----0---------0--------0-----0----0-------|

You saw your life...
Eb|-----------------------------------|----|----------------|  
Bb|--5h7--5---------------------------|----|----------------|
Gb|-----------7---6---4---------------|----|----------------|  
Db|----------------------7---7---7----|-x2-|----0---0---7---| 
Ab|-----------------------------------|----|---9---7----5---|  
Db|-0----0—-0---0---0--0---0---0---0--|----|--9---7-----5---|

Eb|------------------------------------------------------------------|  
Bb|--5h7--5-------------------------------------5h7---5--------------|  
Gb|-----------7---6---4---2---------------------------------7---6~---|  
Db|-------------------------------2/4/2-0----------------------------| 
Ab|------------------------------------------------------------------|  
Db|-0----0—-0---0---0--0----0------------0--------0-----0----0-------|

You took your last breath...
Eb|-----------------------------------|----|--------------------|  
Bb|--5h7--5---------------------------|----|--------------------|
Gb|-----------7---6---4---------------|----|-----------------7--|  
Db|----------------------7---7---7----|-x2-|----0---0---7----7--| 
Ab|-----------------------------------|----|---9---7----5----5--|  
Db|-0----0—-0---0---0--0---0---0---0--|----|--9---7-----5-------|


***********************************
| /   slide up
| \   slide down
| h   hammer-on
| p   pull-off
| ~   vibrato
| b   bend
| r   release
***********************************

            
            
Suggest correction
Creating personal tab
Creating personal tab
You can edit any tab online and save it as your Personal.

You can edit, replace or remove any tab part or add personal notes – all changes will be seen only by you.

Personal tabs can be accessed anytime from any device, even offline.
Learn more »
comments
print report bad tab
2 comments total.
0 reply
sidneymarvinjoe 10 May 15, 2016 05:34 PM, edited at 09:40 pm

Thanks for making this first of all. The only thing that sounded off was the low E picking... I'm a learner, but i think that if you tune in Drop C, low E picking would be 1st fret. Adjust everything else accordingly and it sounds right to me. Don't take my word for it, might be wrong. Lol

0 reply
deathcab4darlin 560 May 16, 2016 03:38 AM, edited at 07:46 am

it's Drop C#, not Drop C. the first fret for low C# sounds really wrong to me maybe listen to my cover or the song on yt and try playing at the same time it's really off.

guest
You may want to rate the tab now too:
select rating
Wanna post a correction for this tab? Suggest correction