Oops, an error
Loading. Please wait.

Either Way tab

version 2
version 2

Whole song

  • Loosely based on 'This Has To Stop' video session.
313 views 3 this week
no commentswrite comment
1 2 3 4 5
2 more votes to show rating
add to favorites
×
Save as Personal and add changes to this tab that will be seen only by you. Learn more ›
×
You can save this tab as Personal to edit and correct it or add notes. All changes will be seen only by you. Learn more »
launch autoscroll
font size
0
reset
how to read this tab
guitar tuner
edit
Autoscroll
slow
fast
+/-
esc
set tempo
stop
About this tab version
Loosely based on 'This Has To Stop' video session. Was this info helpful? Yes No
[Intro]

e|-------------------------------------------------------------------------------------|
B|---7-------------------------------7-----------------------------------7-------------|
G|-------9---7---6-----------------------9---7---6---------------------------9---7---6-|
D|-------------------9---7---7---7-------------------9---7---7---7---7-----------------|
A|-------------------------------------------------------------------------------------|
E|-0---0---0---0---0---0---0---0---0---0---0---0---0---0---0---0---0---0---0---0---0---|


e|-----------------------------------------------------|
B|---7-----------------------------------7-------------|
G|-------9---7---6---------------------------9---7---6-|
D|-------------------9---7---7---7---7-----------------|
A|-----------------------------------------------------|
E|-0---0---0---0---0---0---0---0---0---0---0---0---0---|
I saw my chance, Saw my chance and I took it


e|--------------|
B|--------------|
G|--------------|
D|---0----0-----|
A|----9-----7-5-|
E|-9----7-----5-|
Saw the chance to leave the life I couldn't lead


e|-----------------------------------------------------|
B|---7-----------------------------------7-------------|
G|-------9---7---6---------------------------9---7---6-|
D|-------------------9---7---7---7---7-----------------|
A|-----------------------------------------------------|
E|-0---0---0---0---0---0---0---0---0---0---0---0---0---|
Saw my chance, Saw my chance and I took it


e|--------------|
B|--------------|
G|--------------|
D|---0----0-----|
A|----9-----7-5-|
E|-9----7-----5-|
Chance that I could be more than my head let me believe
And maybe it's not so bad
Drink some water, go to sleep, rinse and repeat 

            
            
Suggest correction
Creating personal tab
Creating personal tab
You can edit any tab online and save it as your Personal.

You can edit, replace or remove any tab part or add personal notes – all changes will be seen only by you.

Personal tabs can be accessed anytime from any device, even offline.
Learn more »
Give kudos to tab author, rate the tab!
1 2 3 4 5
comments
print report bad tab
guest
You may want to rate the tab now too:
select rating
Wanna post a correction for this tab? Suggest correction