Oops, an error
Loading. Please wait.

No Halo tab

version 1
version 1

Whole song

  • This is based on the acoustic version from the session at wax bodega records.
3,607 views 129 this week
no commentswrite comment
1 2 3 4 5
x 5
add to favorites
×
Save as Personal and add changes to this tab that will be seen only by you. Learn more ›
×
You can save this tab as Personal to edit and correct it or add notes. All changes will be seen only by you. Learn more »
launch autoscroll
font size
0
reset
how to read this tab
guitar tuner
edit
Autoscroll
slow
fast
+/-
esc
set tempo
stop
[Intro part 1]

D#|---------------------------------------------------------------------------|
A#|---------------------------------------------------------------------------|
F#|------0-------0----------2--------4---------4------------------------------|
C#|---------------------------------------------------------------------------|
G#|---------------------------------------------------------------------------|
D#|-3-3-----3-3------3-3-------3-3-------3-3----------------------------------|


D#|---------------------------------------------------------------------------|
A#|---------------------------------------------------------------------------|
F#|------0-------2----------5--------4---------4------------------------------|
C#|---------------------------------------------------------------------------|
G#|---------------------------------------------------------------------------|
D#|-3-3-----3-3------3-3-------3-3-------3-3----------------------------------|

D#|---------------------------------------------------------------------------|
A#|---------------------------------------------------------------------------|
F#|------0------2---------4--------4-----------4------------------------------|
C#|---------------------------------------------------------------------------|
G#|---------------------------------------------------------------------------|
D#|-0-0----0-0------0-0-------0-0-----0-0-------------------------------------|

D#|---------------------------------------------------------------------------|
A#|---------------------------------------------------------------------------|
F#|------0-------2----------5--------4---------4------------------------------|
C#|---------------------------------------------------------------------------|
G#|---------------------------------------------------------------------------|
D#|-0-0-----0-0------0-0-------0-0-------0-0----------------------------------|

[Intro part 2]

D#|---------------------------------------------------------------------------|
A#|---------------------------------------------------------------------------|
F#|------0-------2----------4--------4---------4------------------------------|
C#|---------------------------------------------------------------------------|
G#|---------------------------------------------------------------------------|
D#|-3-3-----3-3------3-3-------3-3-------3-3----------------------------------|

D#|---------------------------------------------------------------------------|
A#|---------------------------------------------------------------------------|
F#|------0-------2----------5--------4---------4------------------------------|
C#|---------------------------------------------------------------------------|
G#|---------------------------------------------------------------------------|
D#|-3-3-----3-3------3-3-------3-3-------3-3----------------------------------|

D#|---------------------------------------------------------------------------|
A#|---------------------------------------------------------------------------|
F#|------0------2---------4--------4-----------4------------------------------|
C#|---------------------------------------------------------------------------|
G#|---------------------------------------------------------------------------|
D#|-0-0----0-0------0-0-------0-0-----0-0-------------------------------------|

D#|---------------------------------------------------------------------------|
A#|---------------------------------------------------------------------------|
F#|------0-------2----------5--------4---------4------------------------------|
C#|---------------------------------------------------------------------------|
G#|---------------------------------------------------------------------------|
D#|-0-0-----0-0------0-0-------0-0-------0-0----------------------------------|



Verse riff is the same as intro, part 2


On the word "fulfill", play this:


D#|---------------------------------------------------------------------------|
A#|--10~------7~------~-------------------------------------------------------|
F#|---------------------------------------------------------------------------|
C#|---------------------------------------------------------------------------|
G#|---------------------------------------------------------------------------|
D#|---------------------------------------------------------------------------|


D#|---------------------------------------------------------------------------|
A#|---------------------------------------------------------------------------|
F#|------0-------2----------4--------4---------4------------------------------|
C#|---------------------------------------------------------------------------|
G#|---------------------------------------------------------------------------|
D#|-3-3-----3-3------3-3-------3-3-------3-3----------------------------------|

D#|---------------------------------------------------------------------------|
A#|---------------------------------------------------------------------------|
F#|------0-------0-----------0------0-----------------------------------------|
C#|---------------------------------------------------------------------------|
G#|---------------------------------------------------------------------------|
D#|-3-3-----3-3------3-3-3-3---3-3-------3-3----------------------------------|


[Chorus]

             G
So I didn't show up to your funeral
But I showed up to your house
       Em
And I didn't move a muscle
I was quiet as a mouse
       C
And I swore I saw you in there
           D     
But I was looking at myself


Interlude and verse is the same repeating riff from intro, part 2

On the word "regret", play this:

D#|-------------------------------------------------------------------------|
A#|-7-7-7-7-7-7-7-7----------------8-8-8-8-8-8-8-8--------------------------|
F#|-------------------------------------------------------------------------|
C#|-------------------------------------------------------------------------|
G#|-------------------------------------------------------------------------|
D#|-------------------------------------------------------------------------|

D#|---------------------------------------------------------------------------|
A#|-10-10-10-10-10-10-10-10--------12-12-12-12-12-12-12-12--------------------|
F#|---------------------------------------------------------------------------|
C#|---------------------------------------------------------------------------|
G#|---------------------------------------------------------------------------|
D#|---------------------------------------------------------------------------|

[Chorus]

             G
So I didn't show up to your funeral    
But I showed up to your house
G/F#  Em
And I didn't move a muscle
I was quiet as a mouse
       C
And I swore I saw you in there
           D     
But I was looking at myself

[Outro]

             G
So when you show up to my funeral
                              G/F#
Will you be wearing white or black?
       Em
And I know the voice is in you
It's the energy I lack
        C
So if there's a race to heaven
        D
I will surely come in last
        C
And if there's a race to heaven
        D                  G
I will always come in last


************************************

| x   Dead note
| g   Grace note
| (n) Ghost note
| h   Hammer-on
| p   Pull-off
| r   Release
| >   Accented note
| t   Tapping
| b   Bend
| br  Bend release
| pb  Pre-bend
| pbr Pre-bend release
| /   Slide up
| \   Slide down
| ~   Vibrato
| s   Slap
| P   Pop
| PM  Palm mute
| TR  Trill
| N   Tremolo

************************************

            
            
Suggest correction
Creating personal tab
Creating personal tab
You can edit any tab online and save it as your Personal.

You can edit, replace or remove any tab part or add personal notes – all changes will be seen only by you.

Personal tabs can be accessed anytime from any device, even offline.
Learn more »
comments
print report bad tab
guest
You may want to rate the tab now too:
select rating
Wanna post a correction for this tab? Suggest correction