Oops, an error
Loading. Please wait.

When I See You Timberwolf Acoustic tab

version 1
version 1

Whole song

211 views 18 this week
no commentswrite comment
1 2 3 4 5
3 more votes to show rating
add to favorites
×
Save as Personal and add changes to this tab that will be seen only by you. Learn more ›
×
You can save this tab as Personal to edit and correct it or add notes. All changes will be seen only by you. Learn more »
launch autoscroll
font size
0
reset
how to read this tab
guitar tuner
edit
Autoscroll
slow
fast
+/-
esc
set tempo
stop
Author
Hey guys I thought I'd tab out the acoustic version of this song. Few things before we start.
1.This is not the regular version on the acoustic guitar
This is the acoustic version performed here:https://www.youtube.com/watch?v=fr8K9rFQY-g
2. The tuning is open C# NOT open C (C# G# C# F G# C#)
3. Certain things I find difficult to play so I'd change them a bit, 
but I will note how Cam plays in the video
4. D = down stoke, U = Up stroke

[Intro]

(The x133xx chord is usually played as so, bared with the pinky. I find that too difficult)
C#|-3-|
G#|-3-|
 F|-3-|
C#|-3-|
G#|-1-|
C#|-x-|

    D  U D U D  U D U D  U D U D  U D U D  U D U D  U D U D  U D U D  U D U D
C#|---------------------------------------------------------------------------|
G#|---------------------------------------------------------------------------|
 F|-3--3-3-3-3--3-3-3-3--3-3-3-3--3-3-3-3--3-3-3-3--3-3-3-3--3-3-3-3--3-3-3-3-|
C#|-3--3-3-3-3--3-3-3-3--3-3-3-3--3-3-3-3--3-3-3-3--3-3-3-3--3-3-3-3--3-3-3-3-|
G#|-1--1-1-1-1--1-1-1-1--1-1-1-1--1-1-1-x--x-x-x-x--x-x-x-x--x-x-x-x--x-x-x-1-|
C#|-------------------------------------3--3-3-3-3--3-3-3-3--3-3-3-3--3-3-3---|

      U D U D  U D U D  U D U D  U D U D  U D U D  U D U D 
C#|--------------------------------------------------------------------------|
G#|--------------------------------------------------------------------------|
 F|---3-3-3-3--3-3-3-3--3-3-3-3--3-3-3-3--3-3-3-3--3-3-3-3-------------------|
C#|---3-3-3-3--3-3-3-3--3-3-3-3--3-3-3-3--3-3-3-3--3-3-3-3-------------------|
G#|---1-1-1-1--1-1-1-1--1-1-1-1--1-1-1-x--x-x-x-x--x-x-x-x-------------------|
C#|------------------------------------3--3-3-3-2--2-2-2-0-------------------|




[Verse]

 1. You had the brightest dreams...
 2. Did it make sense...

    D  U D U D  U D U D  U D U D  U D U D  U D U D  U D U D  U D U D  U D U D
C#|---------------------------------------------------------------------------|
G#|---------------------------------------------------------------------------|
 F|-3--3-3-3-3--3-3-3-3--3-3-3-3--3-3-3-3--3-3-3-3--3-3-3-3--3-3-3-3--3-3-3-3-|
C#|-3--3-3-3-3--3-3-3-3--3-3-3-3--3-3-3-3--3-3-3-3--3-3-3-3--3-3-3-3--3-3-3-3-|
G#|-1--1-1-1-1--1-1-1-1--1-1-1-1--1-1-1-x--x-x-x-x--x-x-x-x--x-x-x-x--x-x-x-1-|
C#|-------------------------------------3--3-3-3-2--2-2-2-0--0-0-0-0--0-0-0---|

 1. When you're lying...                                                         Play both twice, 2nd time
      U D U D  U D U D  U D U D  U D U D  U D U D  U D U D  U D U D  U D U D    around play 3rd tab instead
C#|--------------------------------------------------------------------------|  of the 2nd one.
G#|--------------------------------------------------------------------------|
 F|---3-3-3-3--3-3-3-3--3-3-3-3--3-3-3-3--3-3-3-3--3-3-3-3--3-3-3-3--3-3-3-3-|
C#|---3-3-3-3--3-3-3-3--3-3-3-3--3-3-3-3--3-3-3-3--3-3-3-3--3-3-3-3--3-3-3-3-|
G#|---1-1-1-1--1-1-1-1--1-1-1-1--1-1-1-x--x-x-x-x--x-x-x-x--x-x-x-x--x-x-x-1-|
C#|------------------------------------3--3-3-3-2--2-2-2-0--0-0-0-0--0-0-0---|

2. As sweet as you thought...

      U D U D  U D U D  U D U D  U D U D 
C#|--------------------------------------------------------|
G#|--------------------------------------------------------|
 F|---3-3-3-3--3-3-3-3--3-3-3-3--3-3-3-3-------------------|
C#|---3-3-3-3--3-3-3-3--3-3-3-3--3-3-3-3-------------------|
G#|---1-1-1-1--1-1-1-1--1-1-1-1--1-1-1-x-------------------|
C#|------------------------------------3-------------------|



[Chorus]

I guess Dolly's not...
    D  U D U D  U D U D  U D U D  U D U D  U D U D  U D U D  U D U D  U D U D
C#|---------------------------------------------------------------------------|
G#|---------------------------------------------------------------------------|
 F|-3--3-3-3-3--3-3-3-3--3-3-3-3--3-3-3-3--3-3-3-3--3-3-3-3--3-3-3-3--3-3-3-4-|
C#|-3--3-3-3-3--3-3-3-3--3-3-3-3--3-3-3-3--3-3-3-3--3-3-3-3--3-3-3-3--3-3-3-5-|
G#|-1--1-1-1-1--1-1-1-1--1-1-1-1--1-1-1-x--x-x-x-x--x-x-x-x--x-x-x-x--x-x-x-x-|
C#|-------------------------------------3--3-3-3-3--3-3-3-3--3-3-3-3--3-3-3-5-|

Lot more...

      U D U D  U D U D  U D U D  U D U D  U D U D  U D U D 
C#|--------------------------------------------------------------------------|
G#|--------------------------------------------------------------------------|
 F|---4-4-4-4--4-4-4-4--4-4-4-4--4-4-4-3--3-3-3-3--3-3-3-3-------------------|
C#|---5-5-5-5--5-5-5-5--5-5-5-5--5-5-5-3--3-3-3-3--3-3-3-3-------------------|
G#|---x-x-x-x--x-x-x-x--x-x-x-x--x-x-x-x--x-x-x-x--x-x-x-x-------------------|
C#|---5-5-5-5--5-5-5-5--5-5-5-5--5-5-5-3--3-3-3-3--3-3-3-3-------------------|



  [Bridge]

C#|-------------------------------------------3-----|
G#|------------------------------------------3------|
 F|---4--4--4--4--3--3--3--3--4--4--4--4--3---------|
C#|--5--5--5--5--3--3--3--3--5--5--5--5--3--3-------|
G#|-------------------------------------------------|
C#|-5--5--5--5--3--3--3--3--5--5--5--5--3--3--------|

  [Outro]
You smell like hospital...
    D D D D D D D D D D D D D D D D D D D D D D D D D D D D D D D D D D D D D D D D D D D D D D D D
C#|---------------------------------------------------------------------------------------------------|
G#|---------------------------------------------------------------------------------------------------|
 F|-------------------------4-4-4-4-4-4-4-4-4-4-4-4-3-3-3-3-3-3-3-3-3-3-3-3---------------------------|
C#|-3-3-3-3-3-3-3-3-3-3-3-3-5-5-5-5-5-5-5-5-5-5-5-5-3-3-3-3-3-3-3-3-3-3-3-3-3-3-3-3-3-3-2-2-2-2-2-2---|
G#|-3-3-3-3-3-3-3-3-3-3-3-3-x-x-x-x-x-x-x-x-x-x-x-x-1-1-1-1-1-1-1-1-1-1-1-1-3-3-3-3-3-3-3-3-3-3-3-3---|
C#|-3-3-3-3-3-3-3-3-3-3-3-3-5-5-5-5-5-5-5-5-5-5-5-5-------------------------3-3-3-3-3-3-3-3-3-3-3-3---|
PM| * * * * * * * * * * * * * * * * * * * * * * * * * * * * * * * * * * * * * * * * * * * * * * * *

If the devil's real...
    D D D D D D D D D D D D D D D D D D D D D D D D D D D D D D D D D D D D D D D D D D D D D D D D
C#|---------------------------------------------------------------------------------------------------|
G#|---------------------------------------------------------------------------------------------------|
 F|-------------------------4-4-4-4-4-4-4-4-4-4-4-4-3-3-3-3-3-3-3-3-3-3-3-3---------------------------|
C#|-3-3-3-3-3-3-3-3-3-3-3-3-5-5-5-5-5-5-5-5-5-5-5-5-3-3-3-3-3-3-3-3-3-3-3-3-3-3-3-3-3-3-3-3-3-3-3-3---|
G#|-3-3-3-3-3-3-3-3-3-3-3-3-x-x-x-x-x-x-x-x-x-x-x-x-1-1-1-1-1-1-1-1-1-1-1-1-3-3-3-3-3-3-3-3-3-3-3-3---|
C#|-3-3-3-3-3-3-3-3-3-3-3-3-5-5-5-5-5-5-5-5-5-5-5-5-------------------------3-3-3-3-3-3-3-3-3-3-3-3---|

If hell is real.....
   D D D D D D D D D D D D D D D D D D D D D D D D D D D D D D D D D D D D D D D D D D D D D D D D
C#|---------------------------------------------------------------------------------------------------|
G#|---------------------------------------------------------------------------------------------------|
 F|-------------------------4-4-4-4-4-4-4-4-4-4-4-4-3-3-3-3-3-3-3-3-3-3-3-3---------------------------|
C#|-3-3-3-3-3-3-3-3-3-3-3-3-5-5-5-5-5-5-5-5-5-5-5-5-3-3-3-3-3-3-3-3-3-3-3-3-3-3-3-3-3-3-3-3-3-3-3-3---|
G#|-3-3-3-3-3-3-3-3-3-3-3-3-x-x-x-x-x-x-x-x-x-x-x-x-1-1-1-1-1-1-1-1-1-1-1-1-3-3-3-3-3-3-3-3-3-3-3-3---|
C#|-3-3-3-3-3-3-3-3-3-3-3-3-5-5-5-5-5-5-5-5-5-5-5-5-------------------------3-3-3-3-3-3-3-3-3-3-3-3---|
PM| * * * * * * * * * * * * * * * * * * * * * * * * * * * * * * * * * * * * * * * * * * * * * * * *

If hell is real...
    D D D D D D D D D D D D D D D D D D D D D D D D D D D D D D D D D D D D D D D D D D D D D D D D
C#|---------------------------------------------------------------------------------------------------|
G#|---------------------------------------------------------------------------------------------------| play
 F|-------------------------------------------------4-4-4-4-4-4-4-4-4-4-4-4-4-4-4-4-4-4-4-4-4-4-4-4---| this
C#|-3-3-3-3-3-3-3-3-3-3-3-3-3-3-3-3-3-3-3-3-3-3-3-3-5-5-5-5-5-5-5-5-5-5-5-5-5-5-5-5-5-5-5-5-5-5-5-5---| 2X
G#|-3-3-3-3-3-3-3-3-3-3-3-3-3-3-3-3-3-3-3-3-3-3-3-3-x-x-x-x-x-x-x-x-x-x-x-x-x-x-x-x-x-x-x-x-x-x-x-x---| faster
C#|-3-3-3-3-3-3-3-3-3-3-3-3-3-3-3-3-3-3-3-3-3-3-3-3-5-5-5-5-5-5-5-5-5-5-5-5-5-5-5-5-5-5-5-5-5-5-5-5---|

If hell is real...
    D 
C#|----|
G#|----|
 F|-3~-|
C#|-3~-|
G#|-1~-|
C#|----|

stay...
    D 
C#|----|
G#|----|
 F|----|
C#|-3~-|
G#|-3~-|
C#|-3~-|


************************************

| x   Dead note
| ~   Vibrato
| PM  Palm mute


************************************
Suggest correction
Creating personal tab
Creating personal tab
You can edit any tab online and save it as your Personal.

You can edit, replace or remove any tab part or add personal notes – all changes will be seen only by you.

Personal tabs can be accessed anytime from any device, even offline.
Learn more »
Give kudos to tab author, rate the tab!
1 2 3 4 5
comments
print report bad tab
guest
You may want to rate the tab now too:
select rating
Wanna post a correction for this tab? Suggest correction