Oops, an error
Loading. Please wait.

Your Soft Blood Tab

version 2
version 2

Whole song

  • Tab for "Your Soft Blood." Cam uses a weird tuning... Show more
49 views 3 this week
no commentswrite comment
1 2 3 4 5
3 more votes to show rating
add to favorites
launch autoscroll
font size
0
reset
how to read this tab
guitar tuner
Autoscroll
slow
fast
+/-
esc
set tempo
stop
Help us to improve Ultimate-Guitar.com Take our survey!
×
Author
Difficulty
Tuning
intermediate
C# G# C# F# A# D#
About this tab version
Tab for "Your Soft Blood." Cam uses a weird tuning for his guitars (C# G# C# F# A D) so I've simplified it to drop C#. Was this info helpful? Yes No
Intro and verse

D#|---------------------------------------------------------------------------|
A#|-----3-------3-------3-------3-------3-------3--------3---3----------------|
F#|---3---3---3---3---3---3---3---3---3---3---3---3----3---3------------------|
C#|-5-------5-------4-------4-------3-------3---------------------------------|
G#|--------------------------------------------------3------------------------|
C#|---------------------------------------------------------------------------|

D#|-----------------------------------------------------------------------------|
A#|------------6---------6----------7-----------7--------6--------6-------7--7~-|
F#|----------7---7----7-----7----7----7-----7------7---7---7---7----7---7--7----|
C#|-----------------------------------------------------------------------------|
G#|--3-3/-6--------6----------5----------5-----------6-------6--------5---------|
C#|-----------------------------------------------------------------------------|

When drums come in, rhythm changes (listen to recording).

Chorus/loud part

Feel free to add variations on the bends.

D#|---------------------------------------------------------------------------|
A#|---------------------------------------------------------------------------|
F#|------------7b8br7---------7b8br7-------7b8br7-----------------------------|
C#|---5-5-5-------------4-4-4--------3-3-3--------2-2-2-----------------------|
G#|---5-5-5-------------4-4-4--------3-3-3--------2-2-2-----------------------|
C#|---5-5-5-------------4-4-4--------3-3-3--------2-2-2-----------------------|

D#|---------------------------------------------------------------------------|
A#|---------------------------------------------------------------------------|
F#|---------------------------------------------------------------------------|
C#|-1-1-1-1-1-1-1-3--0-0--0-0--1-1-1-1-1-1-1-3--0-0--0--0---------------------|
G#|-1-1-1-1-1-1-1-3--0-0--0-0--1-1-1-1-1-1-1-3--0-0--0--0---------------------|
C#|-1-1-1-1-1-1-1-3--0-0--0-0--1-1-1-1-1-1-1-3--0-0--0--0---------------------|


Bridge

     PM-------------------------------------------------------|
D#|---------------------------------------------------------------------------|
A#|---------------------------------------------------------------------------|
F#|---------------------------------------------------------------------------|
C#|--8-8-8-8-8-8-8-8-3-3-3-3-3-3-3-3-5-5-5-5-5-5-5-0-1-1-1-1-1----------------|
G#|--8-8-8-8-8-8-8-8-3-3-3-3-3-3-3-3-5-5-5-5-5-5-5-0-1-1-1-1-1----------------|
C#|--8-8-8-8-8-8-8-8-3-3-3-3-3-3-3-3-5-5-5-5-5-5-5-0-1-1-1-1-1----------------|


************************************

| b   Bend
| br  Bend release
| /   Slide up
| \   Slide down
| ~   Vibrato
| PM  Palm mute

************************************
Suggest correction
Give kudos to tab author, rate the tab!
1 2 3 4 5
comments
print report bad tab
guest
You may want to rate the tab now too:
select rating
Wanna post a correction for this tab? Suggest correction