Oops, an error
Loading. Please wait.

Bourreau Tab

361 views 1 this week
no commentswrite comment
1 2 3 4 5
3 more votes to show rating
add to favorites
launch autoscroll
font size
0
reset
how to read this tab
guitar tuner
Autoscroll
slow
fast
+/-
esc
set tempo
stop
Help us to improve Ultimate-Guitar.com Take our survey!
×
Author
Difficulty
intermediate
-----------------------------------------------------------------
SONG NAME - Band Name
-----------------------------------------------------------------
Tabbed by:A. J. Wyatt(Enix165)
Email:awyatt165@gmail.com

Tuning: E Standard(E2 standard, not bass standard)

If you've got any questions, shoot!  Also, pardon the timing on the tab, I got it 
sorta approximate, but if you play along with the song you should get it.  Cheers!



Intro/outro riff



e|-----------------------------------------------------|
B|-----------------------------------------------------|
G|--9---9---7/9---7/9---5------------------------------|
D|--9---9---7/9---7/9---5------------------+5~---------|
A|--7---7---5/7---5/7---3-3-3-3-3-3-3-2h0-------+2~----|
E|--------X-----X-----X--------------------------------|


e|-----------------------------------------------------|
B|--------------8--------------------------------------|
G|--9---9---7/9-7---9-7---5-----------4----------------|
D|--9---9---7/9-5---9-7---5-----------4----------------|
A|--7---7---5/7-----7-5---3-----------2----------------|
E|--------X-------------------------------------+3~----|



Second/chorus riff

e|---------------------------------------------|
B|---------------------------------------------|
G|---------------------------------------------|
D|------+7~------+5-+4-+5~-------+7-+5-+4~-----|
A|---------------------------------------------|
E|--0-0------0-0------------0-0----------------|

e|---------------------------------------------|
B|---------------------------------------------|
G|-------------------------------+5-+4---------|
D|------+7~------+5-+4-+5~-------------+5~-----|
A|---------------------------------------------|
E|--0-0------0-0------------0-0----------------|



Verse riff

e|---------------------------------------------------------------|
B|---------------------------------------------------------------|
G|---9---------------------------7--------------7-----7-----7----|
D|---9---------------------------7--------------7-----7-----7----|
A|---7---------------------------5--------------5-5-5-5-5-5-5-5--|
E|---------------------------------------------------------------|

e|---------------------------------------------------------------|
B|---------------------------------------------------------------|
G|---9---------------------------5-------------------------------|
D|---9---------------------------5-------------------------------|
A|---7---------------------------3--------------3-2---2----------|
E|-------------------------------------------------------+3~-----|



Solo riff

NOTE:One of the guitarists just plays the chords straight, the other one divebombs 
or slides down and back up.  There's two parts here:

Guitar 1

e|---------------------------------------------------------------|
B|---------8---------10----------8-------------------------------|
G|---------7----------9----------7-----+5~-+4~---+4h0------------|
D|---------5----------7----------5------------------+4~----------|
A|---------------------------------------------------------------|
E|---0-000------0-000------0-000---------------------------------|

Guitar 2

e|---------------------------------------------------------------|
B|---------8-\/------10-\/-------8-\/----------------------------|
G|---------7-\/-------9-\/-------7-\/----------------------------|
D|---------5-\/-------7-\/-------5-\/----------------------------|
A|--------------------------------------3~-2~-----3h2------------|
E|---0-000------0-000------0-000---------------------3~----------|


As for the solos, I'm not done them yet, sorry guys. D: I'll have them up when I 
finish them.  Enjoy!

| /  slide up
| \  slide down
| h  hammer-on
| p  pull-off
| ~  vibrato
| +  pinch harmonic
| X  dead note
Suggest correction
Give kudos to tab author, rate the tab!
1 2 3 4 5
comments
print report bad tab
guest
You may want to rate the tab now too:
select rating
Wanna post a correction for this tab? Suggest correction