Oops, an error
Loading. Please wait.
We have Chord Pro version of Runaway Train.
It's the closest thing you can get to the original song and it has interactive parts. Check out the tab »
×
523 views 6 this week
no commentswrite comment
1 2 3 4 5
1 last vote to show rating
add to favorites
×
Save as Personal and add changes to this tab that will be seen only by you. Learn more ›
×
You can save this tab as Personal to edit and correct it or add notes. All changes will be seen only by you. Learn more »
launch autoscroll
font size
0
reset
how to read this tab
guitar tuner
backing track
0:00
0:00
edit
Autoscroll
slow
fast
+/-
esc
set tempo
stop
RUNAWAY TRAIN

As recorded by Soul Asylum
(From the 1992 Album GRAVE DANCERS UNION)

Words and Music by David Pirner

Transcribed by Slowhand



           C                 Cmaj7/B                Am                   G5
      x 3 2 0 1 0          x 2 x 0 1 0          x 0 2 2 1 0          3 x 0 0 3 x

         Em7/B                  F                    G                  Cadd9
      x 2 2 0 3 0          1 3 3 2 1 1          3 2 0 0 0 3          x 3 2 0 3 3

          Em                   G/B
      0 2 2 0 0 0          x 2 0 0 3 x



Gtr I (E A D G B E) - 'Acoustic Guitar'
Gtr II (E A D G B E) - 'Acoustic Guitar'
Gtr III (E A D G B E) - 'Acoustic Guitar'
Gtr IV (E A D G B E) - 'Electric Guitar'
Gtr V (E A D G B E) - 'Electric Guitar'


 Intro
  Q=112
                C
 4/4
  Gtr II (Ac. Gtr.)
  W             Q.    E +E E Q     Q.      E +E E Q     Q.    E +E E Q
                |     |  | | |     |       |  | | |     |     |  | | |
                /     /  / / /     /       /  / / /     /     /  / / /

  Gtr I (Ac. Gtr.)
  H    Q  E E   Q   E E  E E E E   E  E  E E  E E E E   Q   E E  E E E E
|-------------|------------------|--------------------|-------------------|
|-------------|-----5----5-------|-------3----3-----3-|-----1----1-----1--|
|-------------|------------------|--------------------|-------0----0------|
|-----------3S|=5-----5----5---5-|-5S(3)---3----3-3---|-2------------3----|
|-------------|--------------3---|--------------------|-------------------|
|-------------|------------------|--------------------|-------------------|


                     1st Verse
                      C                                       Cmaj7/B
  Q.    E +E E E E    Q  H      Q     +Q    E E +E E E E   Q  H       Q
  |     |  | | | |    |  |      |      |    | |  | | | |      |       |
  /     /  / / / /    /  /      /      /    / /  / / / /      /       /

  Q   E E  E E E E    Q  Q  E E E E   +E  E E E  E E E E   Q  E E E E E E
|----------0-------||---------------|-----0--------------|----------------|
|-----1------1---1-||----1--1-----1-|-(1)--------1-------|----1---1-------|
|-------0------0---||---------0-----|-------0-0----0---0-|------0---0-2-2-|
|-2----------------||---------------|--------------------|----------------|
|------------------||-3---------3---|----------------3---|-2--------------|
|------------------||---------------|--------------------|----------------|


                          Am                                 G5
   E  E E +E E E E E   Q  H       Q      Q    E E +E E E E   H      Q   Q
      | |  | | | | |      |       |           | |  | | | |   |          |
      / /  / / / / /      /       /           / /  / / / /   /          /

  +E  E E  E Q   Q     Q  E E E E E E   +E  E E E  E E Q     Q  E E E E E E
|--------------------|----------------|--------------------|----3---3-----5-|
|--------------------|----1---1-----0-|-(0)-1--------------|----------3-----|
|-(2)---0------------|------2---2-----|--------------------|-0----0-----0---|
|------------2---0---|------------2---|-------2----0h2-0---|----------------|
|-----2----2---------|-0--------------|---------0----------|----------------|
|--------------------|----------------|--------------------|----------------|


                     2nd Verse
                      Am
  +E E E E Q   Q       Q  H         Q
   | | | | |   |       |  |         |
   / / / / /   /       /  /         /

  Gtr III (Ac. Gtr.)
   W                   Q  E  E Q    E  E
|------------------||--------0------0----|
|------------------||-----8----8---------|
|------------------||------------------9-|
|------------------||-10--------------10-|
|------------------||--------------------|
|------------------||--------------------|
|
| Gtr I
|  E E E E E E E E     Q  E  E E E  E  E
|--5---5---3---5---||-----------------10-|
|------------3-----||-----8----8---------|
|----0---0---------||------------0-------|
|------------------||-10----10-----10----|
|------------------||--------------------|
|------------------||--------------------|


                            Em7/B
   +Q    E E +E E  E E   Q  H         Q
    |    | |  | |  | |      |         |
    /    / /  / /  / /      /         /

   +Q    E E  E E  E E   Q  Q   +Q.      E
|-------------0--------|----------------10-|
|----------------------|----8---(8)--------|
|--(9)-----0----0----0-|-------------------|
|-(10)--10--------10---|-9-----------------|
|----------------------|-------------------|
|----------------------|-------------------|
|
|  +H         E E  E E   Q  E E  E  Q    E
|-(10)-----------------|----------------10-|
|---------------8----8-|----8----8---------|
|-------------9--------|------------0------|
|-----------------10---|-9----9------------|
|----------------------|-------------------|
|----------------------|-------------------|


                              Am
    E  E  E +E  E E E E   Q   H       Q
       |  |  |  | | | |       |       |
       /  /  /  / / / /       /       /

   +E  E  E  E  E E Q     E E Q  E  E E  E
|-(10)---10----10-------|-----5--5-------7-|
|-----------------------|-----------5------|
|-----------------------|---5---------5----|
|------9-----9----9-----|-7----------------|
|-----------------------|------------------|
|-----------------------|------------------|
|
|  +E  E  Q     E E Q     Q   Q  E  Q    E
|-(10)---10----10-------|-----8--8------10-|
|-----------------------|----------10------|
|-----------------9-----|-9----------------|
|------9----------------|------------------|
|-----------------------|------------------|
|-----------------------|------------------|


                          G5
    Q     E +E  E E E E   H      Q    Q
          |  |  | | | |   |           |
          /  /  / / / /   /           /

   +Q     Q     E E Q     E E Q  E  Q   E
|--(7)----------5-------|-----3--3------5-|
|-----------------5-----|---3-------3-----|
|-----------------------|-0---------------|
|-----------------------|-----------------|
|-----------------------|-----------------|
|-----------------------|-----------------|
|
|  +E  E  E  E  E E Q     Q   Q  Q.     E
|-(10)---10----10-8-----|-----3--3------5-|
|-----------------------|-----------------|
|------9-----9----------|-----------------|
|-----------------------|-----------------|
|-----------------------|-----------------|
|-----------------------|-----------------|


                      Pre-Chorus
                       F                        G
   E  E E E Q   Q      Q      E   E  +Q       E E
   |  | | | |   |      |      |   |   |       | |
   /  / / / /   /      /      /   /   /       / /

                    Gtr V (Clean El. Gtr.)
  +Q    H       E E    E  E   E   Q      +E   Q
|-(5)---5-------3---||---[1]----------------------|
|---------------3---||-----------[1]----([1])-----|
|-----------------4-||-------[2]------------------|
|-------------------||----------------------------|
|-------------------||----------------------------|
|-------------------||----------------------------|
|
| +Q    Q   E E Q      Q      E   E   E   E   Q
|-(5)---5---5-3-----||----------------------------|
|---------------3---||--------1-------------------|
|-------------------||----------------0h==2---0---|
|-------------------||-3----------3---------------|
|-------------------||----------------------------|
|-------------------||----------------------------|


                               Cadd9
  +Q      E   E   +E   E E E   Q      E   E    E   E Q
   |      |   |    |   | | |   |      |   |    |   | |
   /      /   /    /   / / /   /      /   /    /   / /

   E  E   E   E   +Q     Q     E  E   E   E   +Q     Q
|----------------------------|---[0]--------------------|
|----[3]---------------------|-----------[1]-([1])------|
|------------[4]-([4])-------|-------[0]----------------|
|--------[5]-----------------|--------------------------|
|----------------------------|--------------------------|
|----------------------------|--------------------------|
|
|  E  E   E   E   +E   E E E   H               E   E Q
|-------------3---(3)--------|-----------------3--------|
|-----3----------------3---0-|---------------------3----|
|---------0------------------|-0---------------------0--|
|--0---------------------0---|--------------------------|
|----------------------------|--------------------------|
|----------------------------|--------------------------|


  Am                F
   Q   E E E E Q    Q      E   E   +E   E E E
   |   | | | | |    |      |   |    |   | | |
   /   / / / / /    /      /   /    /   / / /

   W                E  E   E   E   +H
|-----------------|---------------------------|
|-----------------|---------------------------|
|-[2]-------------|---[2]---------------------|
|-----------------|-------[3]-----------------|
|-----------------|-----------[3]-([3])-------|
|-----------------|---------------------------|
|
|  Q   E E E E Q    Q      E   E    E   E Q
|------7-5-7-5----|--------5---5----6---5-----|
|-----------------|---------------------------|
|-----------------|-5-------------------------|
|--7--------------|---------------------------|
|-----------------|---------------------------|
|-----------------|---------------------------|


  Em                          G5
  Q      E   E   +E   E E E   E E E E +E E E E
  |      |   |    |   | | |   | | | |  | | | |
  /      /   /    /   / / /   / / / /  / / / /

  E  E   E   E   +Q     E E   W
|-------------------------3-|------------------|
|---------------------------|-3----------------|
|---[0]---------------------|-0----------------|
|-------[2]-----------------|------------------|
|-----------[2]-([2])-------|------------------|
|---------------------------|------------------|
|
| Q      E   E    E   E E E   Q   E E  E E E E
|-----------------3---------|-----3----3-----5-|
|--------5------------5-----|-------3----3-----|
|------------4----------4-2-|-0------------0---|
|---------------------------|------------------|
|---------------------------|------------------|
|---------------------------|------------------|


                       Chorus
                        C
   E  E E E +E E E E    Q  E E +E E E E
   |  | | |  | | | |    |  | |  | | | |
   /  / / /  / / / /    /  / /  / / / /

  Gtr IV (El. Gtr. w/ dist.)
   H         Q   E E    W
|--------------------||-----------------|
|--------------------||-----------------|
|--------------------||-0---------------|
|------------------0-||-2---------------|
|------------------2-||-3---------------|
|--------------------||-----------------|
|
| +Q    Q    E E Q      W
|-(5)---5----5p3-----||-----------------|
|--------------------||-----------------|
|--------------------||-----------------|
|--------------------||-----------------|
|--------------------||-----------------|
|--------------------||-----------------|


                         Em
   E  E E E +E E E E     Q  E E +Q  E E
   |  | | |  | | | |     |  | |  |  | |
   /  / / /  / / / /     /  / /  /  / /

  +H.            E S S   W
|------------------x-0-|-0---------------|
|------------------x-1-|-0---------------|
|-(0)--------------x-0-|-0---------------|
|-(2)------------------|-2---------------|
|-(3)------------------|-2---------------|
|----------------------|-0---------------|
|
|  W                     W
|----------------------|-----------------|
|----------------------|-----------------|
|----------------------|-----------------|
|----------------------|-----------------|
|----------------------|-----------------|
|----------------------|-----------------|


                      Am                                 G5
   Q   E E +E E E E   Q  E E +Q  E E   Q  E E +E E E E   Q  E E +Q  E E
   |   | |  | | | |   |  | |  |  | |   |  | |  | | | |   |  | |  |  | |
   /   / /  / / / /   /  / /  /  / /   /  / /  / / / /   /  / /  /  / /

  +W                  W                W                 W
|-(0)---------------|----------------|-----------------|----------------|
|-(0)---------------|-1--------------|-----------------|-3--------------|
|-(0)---------------|-2--------------|-----------------|-0--------------|
|-(2)---------------|-2--------------|-----------------|-0--------------|
|-(2)---------------|-0--------------|-----------------|----------------|
|-(0)---------------|----------------|-----------------|-3--------------|


                                                       3rd Verse
                                                            Cadd9
  +E  E E +E E E E E   Q  E E +E E E E   E E Q  H        Q  H        Q
   |  | |  | | | | |   |  | |  | | | |   |                  |        |
   /  / /  / / / / /   /  / /  / / / /   /                  /        /

                                                     Gtrs I, III
  +W                   W                 W               Q  E E E E  E  E
|--------------------|-----------------|-------------||-----0----------10-|
|-(3)----------------|-----------------|-------------||-------8-8---------|
|-(0)----------------|-----------------|-------------||-------------------|
|-(0)----------------|-----------------|-------------||-10--------0-------|
|--------------------|-----------------|-------------||-------------10----|
|-(3)----------------|-----------------|-------------||-------------------|


                          G/B
    Q   Q  +E E  E E   Q  H      Q
    |   |   | |  | |      |      |
    /   /   / /  / /      /      /

  Gtr III
   +Q   Q   E E  E E   Q  Q  Q.     E
|-(10)------0--------|-------------10-|
|-------8-----8----8-|----8--8--------|
|--------------------|----------------|
|---------------10---|-9--------------|
|--------------------|----------------|
|--------------------|----------------|
|
| Gtr I
|  +Q   Q   E E  E E   Q  Q  Q.     E
|-(10)------0--------|-------------10-|
|-------8-----8----8-|----8--8--------|
|--------------------|----------------|
|---------------10---|-9--------------|
|--------------------|----------------|
|--------------------|----------------|


                 Em7/B        Am
   +E  E  E E +E E E  E    E  E E  E +E  E  E  E
    |  |  | |  | | |  |       | |  |  |  |  |  |
    /  /  / /  / / /  /       / /  /  /  /  /  /

   +H          E E E  E    E  E E  E  E  E  E  E
|-(10)------------------|-----8---------10-------|
|--------------------10-|-10----8-10-12----10-12-|
|----------------9-9----|------------------------|
|-----------------------|------------------------|
|-----------------------|------------------------|
|-----------------------|------------------------|
|
|  +Q     Q    E E Q       H.               E  E
|-(10)---10---10p0------|----------------------7-|
|-----------------------|------------------------|
|-----------------------|------------------------|
|-----------------------|--7---------------------|
|-----------------------|------------------------|
|-----------------------|------------------------|


                                                             4th Verse
               G                                              C
   Q    H      Q    H        Q   Q     +E   E  E E +Q  E E    Q  H      Q
        |      |    |            |      |   |  | |  |  | |    |  |      |
        /      /    /            /      /   /  / /  /  / /    /  /      /

   E  E Q  H        E E E E  E E Q      E   Q.      H         Q  Q  E E E E
|----12-----------|---7--------8-----|-----10--------------||---------------|
|-13--------------|-8-----8-10-------|-12------------------||----1--1-----1-|
|-----------------|-----7------------|---------------------||---------0-----|
|-----------------|------------------|---------------------||---------------|
|-----------------|------------------|---------------------||-3---------3---|
|-----------------|------------------|---------------------||---------------|
|
|  Q    Q  E E Q    Q   Q    E E E E   +E   E  Q    H         Q  Q  E E E E
|-------7--7-5----|-----3----3-----5-|-(5)-----5----3------||---------------|
|-----------------|------------3-----|---------------------||----1--1-----1-|
|--5--------------|--------------0---|------0--------------||---------0-----|
|-----------------|------------------|---------------------||---------------|
|-----------------|------------------|---------------------||-3---------3---|
|-----------------|------------------|---------------------||---------------|


                          Cmaj7/B                              Am
   Q    E E +E E E E   Q  H      Q      E  E E +E E E E E   Q  H       Q
   |    | |  | | | |      |      |         | |  | | | | |      |       |
   /    / /  / / / /      /      /         / /  / / / / /      /       /

  +E  E Q    E E E E   Q  Q  E E E E   +E  E E  E Q   Q     Q  Q   Q   E E
|--------------------|---------------|--------------------|------------3-3-|
|-(1)--------1-------|----1--1-------|--------------------|----1---1-------|
|-------0------0---0-|---------0---2-|-(2)---0------------|----------------|
|-----2----------2---|---------------|------------2---0---|-2--------------|
|--------------------|-2---------2---|-----2----2---------|-0--------------|
|--------------------|---------------|--------------------|----------------|
|
|  E  E Q    E E E E   Q  Q  E E E E   +E  E E  E Q   Q     Q  E E E E E E
|--------------------|---------------|--------------------|----------------|
|--1---------1-------|----1--1-------|--------------------|----1---1-----0-|
|-------0------0---0-|---------0---2-|-(2)---0------------|------2---2-----|
|-----2----------2---|---------------|------------2---0---|------------2---|
|--------------------|-2---------2---|-----2----2---------|-0--------------|
|--------------------|---------------|--------------------|----------------|


                                                          Pre-Chorus
                       G5                                  F             G
   Q    E E +E E E E   H      Q   Q     +E  E E E Q  Q     Q  E E +Q   E E
        | |  | | | |   |          |      |  | | | |  |     |  | |  |   | |
        / /  / / / /   /          /      /  / / / /  /     /  / /  /   / /

  Gtr I
   W                   W                 W                 Q  Q    E E Q
|--------------------|----------------|-----------------||--------------------|
|--------------------|----------------|-----------------||--------------------|
|--------------------|----------------|-----------------||-2-------0h2-0------|
|--------------------|----------------|-----------------||-3------------------|
|--------------------|----------------|-----------------||--------------------|
|--------------------|----------------|-----------------||--------------------|
|
| Gtr V
|  W                   W                 W                 Q  E E  E Q   S S
|--------------------|----------------|-----------------||----5h6--5----------|
|--------------------|----------------|-----------------||-----------6--------|
|--------------------|----------------|-----------------||---------------5s7--|
|--------------------|----------------|-----------------||--------------------|
|--------------------|----------------|-----------------||--------------------|
|--------------------|----------------|-----------------||--------------------|
|
| Gtr III
| +E  E E E  E E Q     Q  E E E E E E   +Q    Q   H        H       E E E E
|-(3)-5-3-0--3-0-----|----3---3-----5-|-(5)---3---3-----||---------5-5--------|
|--------------------|------3---3-----|-----------------||-------------6------|
|--------------------|------------0---|-----------------||---------------5----|
|--------------------|----------------|-----------------||--------------------|
|--------------------|----------------|-----------------||--------------------|
|--------------------|----------------|-----------------||--------------------|


                        Cadd9           Am                F
  +Q    E E +E  E E E   Q  E E E E Q    Q   E E E E Q     Q  E E +E E E E
   |    | |  |  | | |   |  | | | | |    |   | | | | |     |  | |  | | | |
   /    / /  /  / / /   /  / / / / /    /   / / / / /     /  / /  / / / /

   Q    E E +E  E Q     H      E E Q    E E Q   E E E E   Q  E E  E E Q
|---------3-(3)-------|--------3------|-----7---7p5-----|----5----6-------|
|---------------3-----|----------3----|-------------5---|-----------------|
|-----------------0---|-0----------0--|---5-----------5-|-5----5----------|
|---------------------|---------------|-7---------------|-----------------|
|---------------------|---------------|-----------------|-----------------|
|---------------------|---------------|-----------------|-----------------|
|
|  H.             E E   W               W                 W
|---------------------|---------------|-----------------|-----------------|
|--8------------------|-1-------------|-----------------|-----------------|
|-------------------0-|-0-------------|-----------------|-----------------|
|---------------------|-2-------------|-----------------|-----------------|
|---------------------|---------------|-----------------|-----------------|
|---------------------|---------------|-----------------|-----------------|
|
|  E  E E E  E  E Q     H      E E Q    E E Q   E E E E   Q  E E  E E Q
|-----7------8--7-----|--------3------|-----7---7p5-----|----5----6-------|
|-------8-------------|----------3----|-------------5---|-----------------|
|--7------7-----------|-0----------0--|---5-----------5-|-5----5----------|
|---------------------|---------------|-7---------------|-----------------|
|---------------------|---------------|-----------------|-----------------|
|---------------------|---------------|-----------------|-----------------|


  Em                  G5
  Q   E E +E  E E E    E E E E +E E E E
  |   | |  |  | | |    | | | |  | | | |
  /   / /  /  / / /    / / / /  / / / /

  Gtrs I, III
  E E E E +H           W
|-----3-------------|-!3----------------|
|---5---5-(5)-------|-!3----------------|
|-4-----------------|-!0----------------|
|-------------------|-------------------|
|-------------------|-------------------|
|-------------------|-------------------|
|
| Gtrs I, III
| E E E E  E  E E E    Q   E E  E E E E
|-----3----3--------|------3----3-----5-|
|---5---5-----5-----|--------3----3-----|
|-4-------------4---|--0------------0---|
|-------------------|-------------------|
|-------------------|-------------------|
|-------------------|-------------------|


                       Chorus
                        C
   E  E E E +E E E E    Q  E E +E  E E E
   |  | | |  | | | |    |  | |  |  | | |
   /  / / /  / / / /    /  / /  /  / / /

                        Gtr IV
  +H         Q   Q      W
|-(3)--------3-------||------------------|
|-(3)------------3---||------------------|
|-(0)----------------||-0----------------|
|--------------------||-2----------------|
|--------------------||-3----------------|
|--------------------||------------------|
|
|                       Gtr I
| +Q    Q    E E Q      Q  E E +E  E E E
|-(5)---5----5-3-----||-0--0-0-(0)-0-0-0-|
|--------------------||-1--1-1-(1)-1-1-1-|
|--------------------||-0--0-0-(0)-0-0-0-|
|--------------------||-2--2-2-(2)-2-2-2-|
|--------------------||-3--3-3-(3)-3-3-3-|
|--------------------||-0--0-0-(0)-0-0-0-|


                         Em                                   Am
  +E  E E E +E E E E     Q  E E +Q  E E   +Q   E E +E E E E   Q  E E +Q  E E
   |  | | |  | | | |     |  | |  |  | |    |   | |  | | | |   |  | |  |  | |
   /  / / /  / / / /     /  / /  /  / /    /   / /  / / / /   /  / /  /  / /

  +H.            E S S   W                +W                  W
|------------------x-0-|-0--------------|-(0)---------------|-----------------|
|------------------x-1-|-0--------------|-(0)---------------|-1---------------|
|-(0)--------------x-0-|-0--------------|-(0)---------------|-2---------------|
|-(2)------------------|-2--------------|-(2)---------------|-2---------------|
|-(3)------------------|-2--------------|-(2)---------------|-0---------------|
|----------------------|-0--------------|-(0)---------------|-----------------|
|
| +Q    Q    Q   Q       Q  H       Q      Q   H        Q     W
|-(0)------------0-----|----0-----------|------0------------|-----------------|
|-(1)------------1-----|----0-----------|------0------------|-----------------|
|-(0)------------0-----|----0-----------|------0------------|-----------------|
|-(2)------------2-----|----2-----------|------2------------|-----------------|
|-(3)------------3-----|----2-----------|------2------------|-----------------|
|----------------0-----|----0-----------|------0------------|-----------------|


                    G5
  Q  E E +E E E E   Q  E E +Q  E E   +E  E E E +E  E E E
  |  | |  | | | |   |  | |  |  | |    |  | | |  |  | | |
  /  / /  / / / /   /  / /  /  / /    /  / / /  /  / / /

  W                 W                +W
|-----------------|----------------|---------------------||
|-----------------|-3--------------|-(3)-----------------||
|-----------------|-0--------------|-(0)-----------------||
|-----------------|-0--------------|-(0)-----------------||
|-----------------|----------------|---------------------||
|-----------------|-3--------------|-(3)-----------------||
|
| H       Q   Q     H       Q  Q     +E  E E E +E  E E E
|-------------0---|----------------|---------------------||
|-------------1---|------------3---|-(3)-3-3-3-(3)-3-3-3-||
|-------------2---|------------0---|-(0)-0-0-0-(0)-0-0-0-||
|-------------2---|------------0---|-(0)-0-0-0-(0)-0-0-0-||
|-------------0---|----------------|---------------------||
|-------------0---|------------3---|-(3)-3-3-3-(3)-3-3-3-||


 Interlude
  C
   Q   E   E +E  Q.          +E   E E E E E  Q
   |   |   |  |  |            |   | | | | |  |
   /   /   /  /  /            /   / / / / /  /

  Gtr V
   Q   Q      H               W
|------------[0]----------|----------------------|
|-----[1]-----------------|----------------------|
|--0----------------------|----------------------|
|--2----------------------|----------------------|
|-------------------------|----------------------|
|-------------------------|----------------------|
|
| Gtr III
|  Q   E   E  E  E   E  E    +E   E E E E E  E E
|----------------------10-|-(10)--------0--------|
|------8------8-----------|---------8-----8----8-|
|----------------0--------|-----------9----------|
|-10------10--------10----|------10---------10---|
|-------------------------|----------------------|
|-------------------------|----------------------|
|
| Gtr I
|  Q   E   E  E  E   E  E    +E   E E E E E  E E
|----------------------10-|-(10)--------0--------|
|------8------8-----------|---------8-----8----8-|
|----------------0--------|-----------9----------|
|-10------10--------10----|------10---------10---|
|-------------------------|----------------------|
|-------------------------|----------------------|


        Em
  Q      E  E +E E E  E    +E  E  E E +Q   Q
         |  |  | | |  |     |  |  | |  |   |
         /  /  / / /  /     /  /  / /  /   /

  E  E   H.                 H          Q   Q
|-------[0]-------------|----------------------|
|---[0]-----------------|----------------------|
|-0---------------------|------------------0---|
|-2---------------------|------------------0---|
|-----------------------|----------------------|
|-----------------------|----------------------|
|
| Q      E  E  E E E  E    +Q     Q    E E E E
|-----------------------|--------10---10-0-----|
|--------8-----8---0-10-|-(10)-------------8---|
|----------------0------|--------------------0-|
|-9---------9-----------|----------------------|
|-----------------------|----------------------|
|-----------------------|----------------------|
|
| Q      E  E  E E E  E    +Q     Q    E E E E
|-----------0-----------|--------10---10-0-----|
|--------8-----8---0-10-|-(10)-------------8---|
|----------------0------|--------------------0-|
|-9---------------------|----------------------|
|-----------------------|----------------------|
|-----------------------|----------------------|


       Am
  Q    E E +E  E Q        E  E  Q   +E E  E  E
       | |  |  | |           |  |    | |  |  |
       / /  /  / /           /  /    / /  /  /

  E  E Q    Q.      E    +Q     Q    E E  E  E
|------8----8------10-|-(10)---10---10-8-------|
|---10----------------|------------------10-10-|
|-9-------------------|------------------------|
|---------------------|------------------------|
|---------------------|------------------------|
|---------------------|------------------------|
|
| E  E E E  E  E E  E     E  E  E E  E E  E  E
|------5----5-------7-|---5--8----5--7----5----|
|----5---5-----5------|------8--5------5-------|
|-5--------------5----|----------------------5-|
|---------------------|------------------------|
|---------------------|------------------------|
|---------------------|------------------------|
|
| Q    E E  E  E E  E    +Q     E E  E E  E  E
|------8----8----5--7-|--(7)----7----7-5-------|
|--------5-----5------|-----------5-------5----|
|-5-------------------|----------------------5-|
|---------------------|------------------------|
|---------------------|------------------------|
|---------------------|------------------------|


      G5
  Q   E  E E  E E  E    +E   E  E E Q    Q
      |  | |  | |  |     |   |  | | |
      /  / /  / /  /     /   /  / / /

  Q   H.                +H          E  E E E
|-----7--------------|--(7)---------8--7-----|
|-8------------------|-----------------------|
|-7------------------|-------------------7---|
|--------------------|-----------------------|
|--------------------|-----------------------|
|--------------------|-----------------------|
|
| E E E  E E  E E  E     E   E  Q   E  E Q
|---7------5---------|------10------8--------|
|-----8-------3---10S|=(12)----12-----12-----|
|--------7------0----|-----------------------|
|---------------0----|-----------------------|
|--------------------|-----------------------|
|--------------------|-----------------------|
|
| Q   Q    Q.      E    +Q      Q   E  E E E
|-----3----3-------5-|--(5)-----5---5--3-----|
|--------------------|-------------------3---|
|-0------------------|-----------------------|
|--------------------|-----------------------|
|--------------------|-----------------------|
|--------------------|-----------------------|


  F                       G5
   W                       H.            E E
   |                       |             | |
   /                       /             / /

  Gtr IV
   W                       W
|-----------------------|--------------------|
|-----------------------|--------------------|
|-10--------------------|-12-----------------|
|-10--------------------|-12-----------------|
|--8--------------------|-10-----------------|
|-----------------------|--------------------|
|
| Gtr V
|  E  E E E +Q     E  E    Q   E E +H
|---------8-(8)---------|--------------------|
|-------8---------------|------8-------------|
|----10-----------10----|--7-----7-(7)-------|
|-10-----------------10-|--------------------|
|-----------------------|--------------------|
|-----------------------|--------------------|
|
| Gtrs I, III
|  Q    Q    E  E  E  E    Q   Q    E  Q   E
|-------5----6--5-------|------7----8--7-----|
|------------------6----|--------------------|
|---------------------5-|--7-----------------|
|-----------------------|--------------------|
|-----------------------|--------------------|
|-----------------------|--------------------|


  C                    Am
  Q.      E +E  E Q    Q.    E +E E E E
  |       |  |  | |    |     |  | | | |
  /       /  /  / /    /     /  / / / /

  W                    W
|--------------------|------------------|
|--------------------|-1----------------|
|-5------------------|-2----------------|
|-5------------------|-2----------------|
|-3------------------|-3----------------|
|--------------------|------------------|
|
| E   E E E +Q    Q    Q   Q    Q   Q
|--------------------|-----5----5-------|
|-8-------8-(8)------|------------------|
|-------7------------|-5----------------|
|----10--------------|------------------|
|--------------------|------------------|
|--------------------|------------------|
|
| Q     E E  Q    Q    Q   Q    E Q   E
|--------------------|-----7----7-5-----|
|---------8----------|------------------|
|-----------12-------|------------------|
|--------------------|------------------|
|--------------------|------------------|
|--------------------|------------------|


  F                   Em
  Q.     E +E E E E   Q   E E +E E E E
  |      |  | | | |   |   | |  | | | |
  /      /  / / / /   /   / /  / / / /

  W                   W
|-------------------|------------------|
|-------------------|------------------|
|-------------------|------------------|
|-------------------|-2----------------|
|-3-----------------|-2----------------|
|-1-----------------|-0----------------|
|
|                                      G
| E  E H        Q     E E H        Q
|-5-----------------|-----7------------|
|----6--------------|---8--------------|
|------5------------|------------------|
|-------------------|------------------|
|-------------------|------------------|
|-------------------|------------------|
|
| Gtr III
| Q    Q    E Q   E   Q   Q    Q   Q
|------5----6-5-----|-----3----3-------|
|-------------------|------------------|
|-------------------|------------------|
|-------------------|------------------|
|-------------------|------------------|
|-------------------|------------------|


  G5
  Q   E E +E  E E  E    +E  E  E E +E E E E
  |   | |  |  | |  |     |  |  | |  | | | |
  /   / /  /  / /  /     /  /  / /  / / / /

  W                     +W
|--------------------|----------------------||
|--------------------|----------------------||
|--------------------|----------------------||
|--------------------|----------------------||
|-5------------------|--(5)-----------------||
|-3------------------|--(3)-----------------||
|
|tr I
| Q   Q    Q.      E    +Q     Q    E E Q
|-----------------10-|-(10)-----------------||
|----10---10---------|--------10---10-8-----||
|--------------------|----------------------||
|--------------------|----------------------||
|--------------------|----------------------||
|--------------------|----------------------||
|
| Q   Q    Q.      E    +Q     Q    E E Q
|-----3----3-------5-|--(5)----3----5-3-----||
|--------------------|----------------------||
|--------------------|----------------------||
|--------------------|----------------------||
|--------------------|----------------------||
|--------------------|----------------------||


 5th Verse
  C                      G
  W          +W          W          +W
  |           |          |           |
  /           /          /           /

  W           W          W           W
|----------|-----------|----------|-------|
|----------|-----------|----------|-------|
|----------|-----------|----------|-------|
|----------|-----------|----------|-------|
|----------|-----------|----------|-------|
|----------|-----------|----------|-------|


                                   Am  G
  W                     H        E Q   E
                                   |   |
                                   /   /

  Gtr III
  Q.     E +H           W
|--------------------|-------------------|
|--------1-(1)-------|-------------------|
|--------------------|-------------------|
|--------------------|-------------------|
|-0------------------|-------------------|
|--------------------|-------------------|
|
| Gtr I
| E  E E E +E  E E E   +E  E E E Q   Q
|--------------------|-------------------|
|--------1-(1)-----0-|-(0)h1-----1-------|
|------2-------2-----|-------2-----------|
|----2-----------2---|---------2---------|
|-0------------------|-------------------|
|--------------------|-------------------|


                        G5
  H       H          E  E Q   E E E E
  |                     | |   | | | |
  /                     / /   / / / /

  E E E E E E E E   +E  E E E Q   Q
|---7-7---7-----8-|-(8)---8---7-------||
|-------8---8-----|-----8---8---------||
|-------------7---|-------------------||
|-----------------|-------------------||
|-----------------|-------------------||
|-----------------|-------------------||
|
| Q   E E E E E E    Q    Q   E Q   E
|---------------3-|--3--------3-------||
|-----3---3-------|-------3-----3-----||
|-----------0-----|-------------------||
|-------0-----0---|-------------------||
|-----------------|-------------------||
|-3---------------|-------------------||


 Chorus
  C                                        Em
  Q  E E +E E E E   +E  E E E +E E E E     Q  E E +Q  E E
  |  | |  | | | |    |  | | |  | | | |     |  | |  |  | |
  /  / /  / / / /    /  / / /  / / / /     /  / /  /  / /

  Gtr IV
  W                 +H.            E S S   W
|-----------------|------------------x-0-|-0---------------|
|-----------------|------------------x-1-|-0---------------|
|-0---------------|-(0)--------------x-0-|-0---------------|
|-2---------------|-(2)------------------|-2---------------|
|-3---------------|-(3)------------------|-2---------------|
|-----------------|----------------------|-0---------------|
|
| Gtr I
| Q  H        Q     +Q    H        Q       H       Q  Q
|-0--0--------0---|-(0)---0--------0-----|-0----------0----|
|-1--1--------1---|-(1)---1--------1-----|-0----------0----|
|-0--0--------0---|-(0)---0--------0-----|-0----------0----|
|-2--2--------2---|-(2)---2--------2-----|-2----------2----|
|-3--3--------3---|-(3)---3--------3-----|-2----------2----|
|-----------------|----------------------|-0----------0----|


                      Am                                   G5
  +Q   E E +E E E E   Q  E E +Q  E E    Q   E E +E E E E   Q  E E +Q  E E
   |   | |  | | | |   |  | |  |  | |    |   | |  | | | |   |  | |  |  | |
   /   / /  / / / /   /  / /  /  / /    /   / /  / / / /   /  / /  /  / /

  +W                  W                 W                  W
|-(0)---------------|----------------|-------------------|----------------|
|-(0)---------------|-1--------------|-------------------|-3--------------|
|-(0)---------------|-2--------------|-------------------|-0--------------|
|-(2)---------------|-2--------------|-------------------|-0--------------|
|-(2)---------------|-0--------------|-------------------|----------------|
|-(0)---------------|----------------|-------------------|-3--------------|
|
|  Q   H        Q     Q  H       Q     +Q   H        Q     Q  H       Q
|------0--------0---|----0-------0---|-(0)--0--------0---|----------------|
|------0--------0---|----1-------1---|-(1)--1--------1---|----3-------3---|
|------0--------0---|----2-------2---|-(2)--2--------2---|----0-------0---|
|------2--------2---|----2-------2---|-(2)--2--------2---|----0-------0---|
|------2--------2---|----0-------0---|-(0)--0--------0---|----------------|
|------0--------0---|----------------|-------------------|----3-------3---|


                       C
  +E  E E E +E E E E   Q  E E +E E E E
   |  | | |  | | | |   |  | |  | | | |
   /  / / /  / / / /   /  / /  / / / /

  +W                   W
|--------------------|-----------------|
|-(3)----------------|-----------------|
|-(0)----------------|-0---------------|
|-(0)----------------|-2---------------|
|--------------------|-3---------------|
|-(3)----------------|-----------------|
|
|  W                   Q  H        Q
|--------------------|-0--0--------0---|
|--------------------|-1--1--------1---|
|--------------------|-0--0--------0---|
|--------------------|-2--2--------2---|
|--------------------|-3--3--------3---|
|--------------------|-----------------|


                         Em
  +E  E E E +E E E E     Q  E E +Q  E E
   |  | | |  | | | |     |  | |  |  | |
   /  / / /  / / / /     /  / /  /  / /

  +H.            E S S   W
|------------------x-0-|-0---------------|
|------------------x-1-|-0---------------|
|-(0)--------------x-0-|-0---------------|
|-(2)------------------|-2---------------|
|-(3)------------------|-2---------------|
|----------------------|-0---------------|
|
| +Q    H        Q       H       Q  Q
|-(0)---0--------0-----|-0----------0----|
|-(1)---1--------1-----|-0----------0----|
|-(0)---0--------0-----|-0----------0----|
|-(2)---2--------2-----|-2----------2----|
|-(3)---3--------3-----|-2----------2----|
|----------------------|-0----------0----|


                      Am                                   G5
  +Q   E E +E E E E   Q  E E +Q  E E    Q   E E +E E E E   Q  E E +Q  E E
   |   | |  | | | |   |  | |  |  | |    |   | |  | | | |   |  | |  |  | |
   /   / /  / / / /   /  / /  /  / /    /   / /  / / / /   /  / /  /  / /

  +W                  W                 W                  W
|-(0)---------------|----------------|-------------------|----------------|
|-(0)---------------|-1--------------|-------------------|-3--------------|
|-(0)---------------|-2--------------|-------------------|-0--------------|
|-(2)---------------|-2--------------|-------------------|-0--------------|
|-(2)---------------|-0--------------|-------------------|----------------|
|-(0)---------------|----------------|-------------------|-3--------------|
|
|  Q   H        Q     Q  H       Q     +Q   H        Q     Q  H       Q
|------0--------0---|----0-------0---|-(0)--0--------0---|----------------|
|------0--------0---|----1-------1---|-(1)--1--------1---|----3-------3---|
|------0--------0---|----2-------2---|-(2)--2--------2---|----0-------0---|
|------2--------2---|----2-------2---|-(2)--2--------2---|----0-------0---|
|------2--------2---|----0-------0---|-(0)--0--------0---|----------------|
|------0--------0---|----------------|-------------------|----3-------3---|


                       Outro
                           C
  +E  E E E +E E E E    Q  Q   +E E E E
   |  | | |  | | | |       |    | | | |
   /  / / /  / / / /       /    / / / /

  +W                    W
|--------------------||-----------------|
|-(3)----------------||-----------------|
|-(0)----------------||-----------------|
|-(0)----------------||-5---------------|
|--------------------||-3---------------|
|-(3)----------------||-----------------|
|
|                    Gtr I
|  W                    Q  E E  E E E E
|--------------------||-----------------|
|--------------------||----5----5-------|
|--------------------||-----------------|
|--------------------||------5----5---5-|
|--------------------||-------------3---|
|--------------------||-----------------|


                        Cmaj7/B
  +E E E E +E E Q       Q  E E +E Q   E
   | | | |  | | |       |  | |  | |   |
   / / / /  / / /       /  / /  / /   /

  +H.           E S S   W
|---------------------|------------------|
|---------------------|------------------|
|---------------------|------------------|
|-(5)-------------5-5-|-5----------------|
|-(3)-------------2-2-|-2----------------|
|---------------------|------------------|
|
|  E E E E  Q   E E     Q  E E  E E E E
|---------------------|------------------|
|------3--------------|----1----1--------|
|---------------0-----|------0----0---2--|
|--5S3---3--2-----0---|------------------|
|---------------------|-2-----------2----|
|---------------------|------------------|


                       Am
  +E  Q   E +E Q.      Q      E   E   +E   E E E
   |  |   |  | |       |      |   |    |   | | |
   /  /   /  / /       /      /   /    /   / / /

  +W                   W
|--------------------|---------------------------|
|--------------------|---------------------------|
|--------------------|-2-------------------------|
|-(5)----------------|-2-------------------------|
|-(2)----------------|-0-------------------------|
|--------------------|---------------------------|
|
|                    Gtr V
| +Q    Q    Q    Q    E  E   E   E   +H
|--------------------|---------------------------|
|--------------------|---[1]---------------------|
|-(2)---0------------|-------[2]-----------------|
|------------2----0--|-----------[2]-([2])-------|
|--------------------|---------------------------|
|--------------------|---------------------------|
|
| Gtr III
|  W                   H               Q     E E
|--------------------|-------------------------0-|
|--------------------|---------------------------|
|--------------------|---------------------------|
|--------------------|---------------------------|
|--------------------|---------------------------|
|--------------------|---------------------------|


                          G5
   +E   E E E +E E  E E   Q      E   E   +E   Q   E
    |   | | |  | |  | |   |      |   |    |   |   |
    /   / / /  / /  / /   /      /   /    /   /   /

   +W                     W
|-----------------------|---------------------------|
|-----------------------|---------------------------|
|--(2)------------------|---------------------------|
|--(2)------------------|-5-------------------------|
|--(0)------------------|-5-------------------------|
|-----------------------|-3-------------------------|
|
|  +W                     E  E   E   E   +H
|-----------------------|---------------------------|
|-----------------------|---[0]---------------------|
|-----------------------|-------[0]-----------------|
|-([2])-----------------|-----------[0]-([0])-------|
|-----------------------|---------------------------|
|-----------------------|---------------------------|
|
|  +Q     Q    E Q.       Q      E   E    E   E E E
|--(0)----3----3-0------|--------3--------3-------5-|
|-----------------------|------------3--------3-----|
|-----------------------|-----------------------0---|
|-----------------------|---------------------------|
|-----------------------|---------------------------|
|-----------------------|---------------------------|


                                C
   +E   E E E +E E Q       Q    Q    +E  E  E  E
    |   | | |  | |              |     |  |  |  |
    /   / / /  / /              /     /  /  /  /

   +W                      W
|---------------------||-------------------------|
|---------------------||o------------------------|
|---------------------||---0---------------------|
|--(5)----------------||---2---------------------|
|--(5)----------------||o--3---------------------|
|--(3)----------------||-------------------------|
|
|  +W                      E  E E  E +H
|---------------------||-----10------------------|
|---------------------||o-------8----------------|
|---------------------||-----------9-(9)---------|
|-([0])---------------||-------------------------|
|---------------------||o------------------------|
|---------------------||-------------------------|
|
|                         Gtr I
|  +E   E Q    Q   Q       Q    E  E  E  E  E  E
|--(5)---------3------||----------------------10-|
|---------3-----------||o-------8-----8----------|
|---------------------||-----------------0-------|
|-------0-------------||--10------10-------10----|
|---------------------||o------------------------|
|---------------------||-------------------------|


                           Em
   +E   E E E +E  E  Q     Q    E E +E  Q   E
    |   | | |  |  |  |     |    | |  |  |   |
    /   / / /  /  /  /     /    / /  /  /   /

   +W                      W
|------------------------|--------------------|
|------------------------|--------------------|
|--(0)-------------------|--------------------|
|--(2)-------------------|-2------------------|
|--(3)-------------------|-2------------------|
|------------------------|-0------------------|
|
|  +E   E E E +H           E  E E E +H
|------10----------------|---10---------------|
|---------8--------------|------8-------------|
|--(9)------9-(9)--------|--------0-(0)-------|
|------------------------|--------------------|
|------------------------|--------------------|
|------------------------|--------------------|
|
|  +E   E E E  E  E  E E   Q    Q    Q.     E
|-(10)-------------------|-----------------10-|
|---------8-------8----8-|------8----8--------|
|-----------9------------|--------------------|
|------10-----------10---|-9------------------|
|------------------------|--------------------|
|------------------------|--------------------|


                        Am
   +E   Q   E +E Q.     Q  E E +E  E E  E
    |   |   |  | |      |  | |  |  | |  |
    /   /   /  / /      /  / /  /  / /  /

   +W                   W
|---------------------|-------------------|
|---------------------|-------------------|
|---------------------|-2-----------------|
|--(2)----------------|-2-----------------|
|--(2)----------------|-0-----------------|
|--(0)----------------|-------------------|
|
|  +E   E E E  H        Q  Q    E  E E  E
|------10-------------|----8----8-------8-|
|---------8-----------|-----------10------|
|--(0)---------0------|--------------9----|
|---------------------|-------------------|
|---------------------|-------------------|
|---------------------|-------------------|
|
|  +Q     Q    H        Q  E E  E  E E  E
|-(10)--------10------|----8----8------10-|
|---------8-----------|-----------10------|
|---------------------|-9----9-------9----|
|---------------------|-------------------|
|---------------------|-------------------|
|---------------------|-------------------|


                          G5
   +E  E  E E +E  E E E   Q  E E +E Q   E   +E  E  E E +E E Q
    |  |  | |  |  | | |   |  | |  | |   |    |  |  | |  | |
    /  /  / /  /  / / /   /  / /  / /   /    /  /  / /  / /

    H          Q    E E   W                  W
|---------------------3-|-3---------------|---------------------||
|---------------------3-|-3---------------|--------------------o||
|-----------------------|-0---------------|---------------------||
|-----------------------|-0---------------|---------------------||
|-----------------------|-----------------|--------------------o||
|-----------------------|-----------------|---------------------||
|
|  +Q     Q    E  E Q     Q  Q    E E E E   +Q     Q    Q   Q
|--(8)----8----8--------|----7----7-----8-|-(8)---10----8---7---||
|----------------10-----|-----------8-----|--------------------o||
|-------------------9---|-------------7---|---------------------||
|-----------------------|-----------------|---------------------||
|-----------------------|-----------------|--------------------o||
|-----------------------|-----------------|---------------------||
|
|  +E  E  E E  E  Q   E   Q  Q    E E E E   +Q     Q    E E Q
|-(10)---10---10--8-----|----3----3-----5-|-(5)----5----5-3-----||
|-----------------------|-----------3-----|-----------------3--o||
|------9----9-----------|-------------0---|---------------------||
|-----------------------|-----------------|---------------------||
|-----------------------|-----------------|--------------------o||
|-----------------------|-----------------|---------------------||


Duration Legend
---------------
W - whole; H - half; Q - quarter; E - 8th; S - 16th; T - 32nd; X - 64th; a - acciaccatura
+ - note tied to previous; . - note dotted; .. - note double dotted
Uncapitalized letters represent notes that are staccato (1/2 duration)
Irregular groupings are notated above the duration line
Duration letters will always appear directly above the note/fret number it represents the
duration for.  Duration letters with no fret number below them represent rests.  Multi-
bar rests are notated in the form Wxn, where n is the number of bars to rest for.  Low
melody durations appear below the staff

Tablature Legend
----------------
 h   - hammer-on
 p   - pull-off
 b   - bend
 pb  - pre-bend
 r   - bend release (if no number after the r, then release immediately)
 /\  - slide into or out of (from/to "nowhere")
 s   - legato slide
 S   - shift slide
  - natural harmonic
[n]  - artificial harmonic
n(n) - tapped harmonic
 ~   - vibrato
 tr  - trill
 T   - tap
 TP  - trem. picking
 PM  - palm muting
\n/  - tremolo bar dip; n = amount to dip
 \n  - tremolo bar down
 n/  - tremolo bar up
/n\  - tremolo bar inverted dip
 =   - hold bend; also acts as connecting device for hammers/pulls
 <>  - volume swell (louder/softer)
 x   - on rhythm slash represents muted slash
 o   - on rhythm slash represents single note slash

Misc Legend
-----------
 |  - bar
||  - double bar
||o - repeat start
o|| - repeat end
*|  - double bar (ending)
 :  - bar (freetime)
 $  - Segno
 &  - Coda
Tempo markers -  = BPM(8/16=s8/s16), where s8 = swing 8ths, s16 = swing 16ths

            
            
Suggest correction
Creating personal tab
Creating personal tab
You can edit any tab online and save it as your Personal.

You can edit, replace or remove any tab part or add personal notes – all changes will be seen only by you.

Personal tabs can be accessed anytime from any device, even offline.
Learn more »
Give kudos to tab author, rate the tab!
1 2 3 4 5
comments
print report bad tab
guest
You may want to rate the tab now too:
select rating
Wanna post a correction for this tab? Suggest correction