Oops, an error
Loading. Please wait.

Super Bon Bon Bass Tab

version 3
version 3

Whole song

28 views 1 this week
no commentswrite comment
1 2 3 4 5
3 more votes to show rating
add to favorites
launch autoscroll
font size
0
reset
guitar tuner
Autoscroll
slow
fast
+/-
esc
set tempo
stop
Help us to improve Ultimate-Guitar.com Take our survey!
×
Author
Difficulty
novice
About this tab version
More complete tab than other two. Was this info helpful? Yes No
"Super Bon Bon" by Soul Coughing
From the 1996 album Irresistible Bliss

The progression is consistent throughout until the chorus and bridge as I've tabbed.  Happy playing!

[Intro]
G|--------------|---------|
D|------4-------|---------| 
A|--------2-4---|---------| x4
E|-4-4-4------2-|-4-4-4-4\|

[Verse]
"Move aside     "Let the man
And let the..."  go through"
G|--------------|---------|
D|------4-------|---------|
A|--------2-4---|---------| x14
E|-4-4-4------2-|-4-4-4-4\|

[Chorus]
"Too fat, fat..." 
G|--------------|--------------|
D|------4-------|-------4------|
A|--------2-4---|---------2-4--| x8
E|-4-4-4------2-|-4-4-4-------2|

[Verse]
"And by the phone..."
G|--------------|---------|
D|------4-------|---------| 
A|--------2-4---|---------| x6
E|-4-4-4------2-|-4-4-4-4\|

[Chorus]
"Too fat, fat..." 
G|--------------|--------------|
D|------4-------|-------4------|
A|--------2-4---|---------2-4--| x8
E|-4-4-4------2-|-4-4-4-------2|

[Bridge]
"Super bon bon, super bon bon..."
G|--------------|--------------|
D|--------------|--------------|
A|--------------|--------------| x4
E|--------------|--------2-2\--|

[Outro]
"Move aside     "Let the man
And let the..."  go through"
G|--------------|---------|
D|------4-------|---------|
A|--------2-4---|---------| x10
E|-4-4-4------2-|-4-4-4-4\|

\ slide down

Suggest correction
Give kudos to tab author, rate the tab!
1 2 3 4 5
comments
print report bad tab
guest
You may want to rate the tab now too:
select rating
Wanna post a correction for this tab? Suggest correction