Oops, an error
Loading. Please wait.

To End It All Tab

version 1
version 1

Intro

Whole song

1,419 views 1 this week
1 commentread comment
1 2 3 4 5
2 more votes to show rating
add to favorites
launch autoscroll
font size
0
reset
how to read this tab
guitar tuner
Autoscroll
slow
fast
+/-
esc
set tempo
stop
Help us to improve Ultimate-Guitar.com Take our survey!
×
Author
Difficulty
novice
Soul Embraced- To End it All (Intro)

Drop Db

Guitar 1 (Main Lead)
-------------------------------------------------------------|
-------------------1h2-0-4h5-4--------------------1h2-0------|
-------------1h2-1--------------------------1h2-1------------|
---------5-6----------------------------5-6------------------|
------4------------------------------4-------------------4-3-|
---0------------------------------0--------------------------|

Drop Db

Guitar 2 (Bass Lead)
-------------------------------------------------------------|
-------------------------1h2-1-------------------------------|
-------------------1h2-1--------------------------1h2-1------|
---------5-6-2h4-2----------------------5-6-2h4-2------------|
------4------------------------------4-----------------------|
---0-------------------------------0---------------------8-7-|
Suggest correction
Give kudos to tab author, rate the tab!
1 2 3 4 5
comments
print report bad tab
1 comment total.
0 reply
thor632 10 Aug 02, 2010 02:25 PM

The only thing I see wrong is that the "5" in -------------------
-------------------
-------------------
---------5-6-2h4-2-
------4------------
---0---------------
should be another "4". But other than that, the tab is pretty beast :D

guest
You may want to rate the tab now too:
select rating
Wanna post a correction for this tab? Suggest correction