Oops, an error
Loading. Please wait.

To End It All Tab

version 1
version 1

Intro

Whole song

2,282 views 1 this week
1 commentread comment
1 2 3 4 5
accurate
x 2
add to favorites
launch autoscroll
font size
0
reset
how to read this tab
guitar tuner
Tab Pro tools
  • play this tab
  • loop segment
  • change instrument
  • show fretboard
  • metronome
Autoscroll
slow
fast
+/-
esc
set tempo
stop
Difficulty
Tuning
intermediate
C# G# C# F# A# D#
O.K. This song is in Drop C# so the tuning is: C#G#C#F#A#D#. I think this tab is pretty 
but leave some feedback and let me know what you think. Also, if someone has the solo, 
send it to me so I can learn it too, because that isn’t my specialty. Lol. Enjoy!

Part A (Intro)
------------------------------------------------------------|
------------------------------------------------------------|
---------------5/7-5-7/10-9(*)------------------------------|
---------3/5-3----------------------3/5-3-5/8-7(*)----------|x4
---5-7-8----------------------5-7-8-------------------------|
-0--------------------------0-------------------8-7(*)------|
(I usually throw in a couple of pinch harmonics the last time
through before going into the pre-verse just for personal
preference.)

Part B (Pre-Verse)
------------------------------------------------------------|
------------------------------------------------------------|
------------------------------------------------------------|
---------7-------5-------8-7-5-----------7-------5----------|
---5-7-8---8-7-5---8-7-5-------8---5-7-8---8-7-5---8-7-5----|
-0-------------------------------0-----------------------8-7|

Part B continuation (Pre-Verse)
------------------------------------------------------------|
------------------------------------------------------------|
------------------------------------------------------------|
---------7-------5-------8-7-5---0-0-0-0--------------------|
---5-7-8---8-7-5---8-7-5-------8-0-0-0-0--------------------|
-0-------------------------------0-0-0-0--------------------|

Part B x2 without continuation

Part C (Verse) (This is the easy way to play it)
------------------------------------------------------------|
-------------3-2--------------------------------------------|
-----------------3-2----------------------------------------|
-000---000-----------000---000-----10-----------------------|
-000-1-000-1---------000-1-000-1--8--0----------------------|x4
-000-0-000-0---------000-0-000-0-0--------------------------|

Part C (Verse) (Essentially the same thing just a little different)
------------------------------------------------------------|
------------------------------------------------------------|
-------------7-6-3------------------------------------------|
-000---000---------7-000---000-----10-----------------------|
-000-1-000-1---------000-1-000-1--8--0----------------------|
-000-0-000-0---------000-0-000-0-0--------------------------|

Part D (Chorus)
------------------------------------------------------------|
------------------------------------------------------------|
------------------------------------------------------------|
-0-----8-----------10---------------------------------------|x4
-0-x8--8-x8--3-x8--10-x8------------------------------------|
-0-----8-----2-----10---------------------------------------|
You can layer Part B (Verse) over this riff (Part D). I usually do it
on the third time through.

Part B x2 without continuation

Part C x4

Part D x4

Part E (BREAKDOWN!)
------------------------------------------------------------|
------------------------------------------------------------|
------------------------------------------------------------|
-00-00-0000-0000-0000-0-00----------------------------------|x4
-00-00-0000-0000-0000-0-00----------------------------------|
-00-00-0000-0000-0000-0-00----------------------------------|

Part E continuation (BREAKDOWN!)
------------------------------------------------------------|
------------------------------------------------------------|
------------------------------------------------------------|
-00-00-0000-0000-0000-0-0-1---------------------------------|
-00-00-0000-0000-0000-0-0-1---------------------------------|x4
-00-00-0000-0000-0000-0-0-1---------------------------------|

Part A x6
comments
We did not receive enough feedback on this tab! Please rate:
print report bad tab
1 2 3 4 5
1 comment total.
0 reply
silentshane420 wrote on March 15 2009, 03:41 am

This Tab is really close, but some notes seem missing in the Intro and the chorus seems like it needs a few nots also. Besides that this tab is really good. Great job.

I want to post or [tab]
guest
You may want to rate the tab now too:
select rating
Please do not post tabs as comments. Select "correction" instead!