Oops, an error
Loading. Please wait.

El Poder De Tu Sangre Tab

86 views 1 this week
no commentswrite comment
1 2 3 4 5
3 more votes to show rating
add to favorites
×
Save as Personal and add changes to this tab that will be seen only by you. Learn more ›
×
You can save this tab as Personal to edit and correct it or add notes. All changes will be seen only by you. Learn more »
save as personal
new!
launch autoscroll
font size
0
reset
how to read this tab
guitar tuner
Autoscroll
slow
fast
+/-
esc
set tempo
stop
Hola espero que les sirvan estos acordes.

Intro://F-Gm-Bb-C//

Verso1:

               F
 Aqui estoy señor
            Gm
 Mi corazón doy
            Bb
 Moriste por mí
       C
 En esa cruz
            F
 Hoy puedo ver
            Gm
 Y puedo sentir
            Bb
 Ya no vivo yo
            C
 Es Cristo en mí

Pre-coro:

            Gm
 Dame un corazón
           C
 Que oiga tu voz
               Gm
 Y que pueda estar
          C
 En tu verdad

CORO:

      Bb         F
 Todo lo que yo se
            C             Gm
 Es que tu sangre tiene poder
    Bb        F
 Me diste perdón
           Dm
 Y vivo estoy
           C
 Y vivo estoy

e------------------------------------
B------------------------------------
G-10-10-10-10-10-10-12-12-12-12-12-12
D-----------(4 vences)---------------
A------------------------------------
E------------------------------------

Verso2:

              F
 Ya no hay temor
            Gm
 En mi corazón
             Bb
 Y se que la cruz
        C
 Me restauro
            F
 Hoy puedo ver
            Gm
 Y puedo sentir
            Bb
 Ya no vivo yo
            C
 Es Cristo en mí

Pre-coro:

            Gm
 Dame un corazón
           C
 Que oiga tu voz
               Gm
 Y que pueda estar
          C
 En tu verdad

CORO:En quintas

      Bb         F
 Todo lo que yo se
            C             Gm
 Es que tu sangre tiene poder
    Bb        F
 Me diste perdón
           Dm
 Y vivo estoy
           C
 Y vivo estoy

      Bb         F
 Todo lo que yo se
            C             Gm
 Es que tu sangre tiene poder
    Bb        F
 Me diste perdón
           Dm-E-F-F(E y F en octavas)
 Y vivo estoy
           C
 Y vivo estoy

Solo:El solo de hacen con octavas

e-------------------------------------------
B-------------------------13-13-13-13-------
G-10-10-10-12-12-12-10-10-10-10-10-10-------
D-------------------------------------------
A-8--8--8--14-14-14-12-12-12-12-12-12-------
E-------------------------------------------

e-------------------------------------------
B-------------------------------------------
G-10-10-10-12-12-12-10-10-10-9-10-9-10-9-10-
D-------------------------------------------
A-8--8--8--14-14-14-12-12-12-7-8--7-8--7-8--
E-------------------------------------------

e-------------------------------------------
B-------------------------13-13-13-13-------
G-10-10-10-12-12-12-10-10-10-10-10-10-------
D-------------------------------------------
A-8--8--8--14-14-14-12-12-12-12-12-12-------
E-------------------------------------------

e-------------------------------------------
B-------------------------------------------
G-10-10-10-10-12-12-12-12-10-10-------------
D-8--8--8--8--14-14-14-14-12-12-------------
A-8--8--8--8--14-14-14-14-12-12-------------
E-------------------------------------------

           Gm
 Dame un corazón
           C
 Que oiga tu voz
               Gm
 Y que pueda estar
          C
 En tu verdad

          Gm
 Dame un corazón
           C
 Que oiga tu voz
               Gm
 Y que pueda estar
          C
 En tu verdad


          Gm
 Dame un corazón
           C
 Que oiga tu voz
               Gm
 Y que pueda estar
          C
 En tu verdad


            Gm
 Dame un corazón
           C-F-F-F-E-E-E(F y E en octavas)
 Que oiga tu voz
               Gm
 Y que pueda estar
          C-F-F-F-E-E-E(F y E en octavas)
 En tu verdad

CORO:

      Bb         F
 Todo lo que yo se
            C             Gm
 Es que tu sangre tiene poder
    Bb        F
 Me diste perdón
           Dm-E-F-F(E y F en octavas)
 Y vivo estoy
           C
 Y vivo estoy

     Bb         F
 Todo lo que yo se
            C             Gm
 Es que tu sangre tiene poder
    Bb        F
 Me diste perdón
           Dm-E-F-F(E y F en octavas)
 Y vivo estoy
           C
 Y vivo estoy

Final:

e-------------------------------------------
B-------------------------13-13-13-13-------
G-10-10-10-12-12-12-10-10-10-10-10-10-------
D-------------------------------------------
A-8--8--8--14-14-14-12-12-12-12-12-12-------
E-------------------------------------------

e-------------------------------------------
B-------------------------------------------
G-10-10-10-10-12-12-12-12-10-10-------------
D-8--8--8--8--14-14-14-14-12-12-------------
A-8--8--8--8--14-14-14-14-12-12-------------
E-------------------------------------------
Suggest correction
Give kudos to tab author, rate the tab!
1 2 3 4 5
comments
print report bad tab
guest
Wanna post a correction for this tab? Suggest correction