Oops, an error
Loading. Please wait.

Tu Amor Es Real Tab

251 views 3 this week
no commentswrite comment
1 2 3 4 5
3 more votes to show rating
add to favorites
launch autoscroll
font size
0
reset
how to read this tab
guitar tuner
×
Best way to learn
"Tu Amor Es Real"
Autoscroll
slow
fast
+/-
esc
set tempo
stop
Hola pues envio esta cancion tu amor es real espero k le sirva
 favor usen quintas no usen acordes naturales x
k ovbiamente no va salir.
Intro:F#-D-Db-A-B-D-Db-A-F#-D-Db-A-B-A-Ab-A
En punteos:
e------------------------------------------------99--------
B-10-10-10-9-9-10-10-10(se repite 3 veces)-12-12----12-10-9
G-9--9--9--9-9-9--9--9-------------------------------------
D----------------------------------------------------------
A----------------------------------------------------------
E----------------------------------------------------------
TODO JUNTO SON 3 VECES
VERSO:
F#       D        A       B
  No hay nadie mas nadie mas
F#       D         A          Ab
  eres el unico Dios lo mejor que he podido encontrar
F#      D       A           B
  se que me amas y nunca me dejaras
F#             D           A         Ab
  no hubiera podido hacerlo sin tu amor
PRE CORO:
 D       E
  wooh woooh
CORO:
F#            A        D         E
  Quitaste en mi el temor se que encontre tu amor
F#       A            B       D
  lo que quiero es honrarte amarte
F#         A         D          E
  mi mundo no existiria sin tu amor no viviria
F#        A           B      D-Db-A
  lo que quiero es honrarte amarte

EL MISMO PUNTEO DEL INTRO:F#

VERSO:
F#       D        A       B
  No hay nadie mas nadie mas
F#       D         A          Ab
  eres el unico Dios lo mejor que he podido encontrar
F#      D       A           B
  se que me amas y nunca me dejaras
F#             D           A         Ab
  no hubiera podido hacerlo sin tu amor
PRE CORO:
 D       E
  wooh woooh
CORO:
F#            A        D         E
  Quitaste en mi el temor se que encontre tu amor
F#       A            B       D
  lo que quiero es honrarte amarte
F#         A         D          E
  mi mundo no existiria sin tu amor no viviria
F#        A           B      D-Db-A
  lo que quiero es honrarte amarte

BAJO Y ORGANO

F#              D-Db-A           A              Ab-A-B
 //Me llenas hoy   me llenas hoy   me llenas de tu amor//
F#              D-Db-A           A
  Me llenas hoy   me llenas hoy   me llenas de tu amooooooor

SOLO:

e----------------------------------------------------------
B-10-10-10-9-9-10---10-10-10-9-9-10---10-10-10-9-9-10------
G-9--9--9--9-9-9-9--9--9--9--9-9-9-9--9--9--9-9-9-10-9-----
D----------------------------------------------------------
A----------------------------------------------------------
E----------------------------------------------------------

e---------9-9-------------------------12--12---------------
B-12-12-12---12-10-10---10-10-10-9-10---10-----------------
G-----------------------9--9--9--9-9-----------------------
D----------------------------------------------------------
A----------------------------------------------------------
E----------------------------------------------------------

e---------------12--12---------------12--12-10-9-----------
B-10-10-10-9-10---10---10-10-10-9-10---10-------10-10------
G-9--9--9--9-9---------9--9--9--9--9------------9--9-------
D----------------------------------------------------------
A----------------------------------------------------------
E----------------------------------------------------------

CORO:
F#            A        D         E
  Quitaste en mi el temor se que encontre tu amor
F#       A            B       D
  lo que quiero es honrarte amarte
F#         A         D          E
  mi mundo no existiria sin tu amor no viviria
F#        A           B      D-Db-A D-Db-A-F#
  lo que quiero es honrarte amarte

BENDICIONES DEL GRUPO REVOLUCION12
Suggest correction
Give kudos to tab author, rate the tab!
1 2 3 4 5
comments
print report bad tab
guest
You may want to rate the tab now too:
select rating
Wanna post a correction for this tab? Suggest correction